Homestuck - Sunslammer tab

-------------------------------------------------------------------------------
			     Sunslammer - Homestuck
-------------------------------------------------------------------------------
Tabbed by: Yahnich
Email: N/A

Tuning: Standard

e|-----3------------------3-------------3----------6-6--4-3--1-1--3--4--6--------|
B|-1-1-----4--6--4-----------4-6-4---------4---6---------------------------------|
G|-------------------2-2------------1-1------------------------------------------|
D|-------------------------------------------------------------------------------|
A|-------------------------------------------------------------------------------|
E|-------------------------------------------------------------------------------|

e|-6-8-6-----6-8-6--------------3-3--4-4----6-----6-8-6--------11-10-11----------|
B|-------------------4-4--6--6---------------------------------------------------|
G|-------------------------------------------------------------------------------|
D|-------------------------------------------------------------------------------|
A|-------------------------------------------------------------------------------|
E|-------------------------------------------------------------------------------|


e|-6-4-3-----8----6---6-8-6---6-8-6------------------------1-3---------------1----|
B|-------------------------------------4----3--4---1-3-4--------------1--4-3---4--|
G|---------------------------------------------------------------------3----------|
D|--------------------------------------------------------------------------------|
A|--------------------------------------------------------------------------------|
E|--------------------------------------------------------------------------------|

Repeat

************************************

| /   slide up
| \   slide down
| h   hammer-on
| p   pull-off
| ~   vibrato
| +   harmonic
| x   Mute note
| b   Bend
| pb  Pre-bend
| br  Bend release
| pbr Pre-bend release
| brb Bend release bend

************************************
Tap to rate this tab
 
# A B C D E F G H I J K L M N O P Q R S T U V W X Y Z