Song name
# A B C D E F G H I J K L M N O P Q R S T U V W X Y Z

Honchie - Mofo tab

Mofo by Honchie
Tabbed by texasmusic
matt.munson@tcu.edu

This is a very funny song by a very funny band. If you ever have a chance to see them, do it.

INTRO
e-------4---4-----------4---4-----------2-5-------2---|
B-----4---5---4-------4---5---4-------2---------2---5-|
G---4-----------4---4-----------4---2---------2-------|
D-2---------------2---------------0---------0---------|
A-----------------------------------------------------|
E-----------------------------------------------------|

e-------4---4-----------4---7-9-7-4-------2------2--------|
B-----4---5---4-------4---5-------------2------2---5------|
G---4-----------4---4-----------------2------2------------|
D-2---------------2-----------------0-------0-------------|
A---------------------------------------------------------|
E---------------------------------------------------------|

VERSE:
Electric with Chorus (I think)

e-------4---4-----------4---4-----------2-5-------2---2-----|
B-----4---5---4-------4---5---4-------2---------2---5---5-2-|
G---4-----------4---4-----------4---2---------2-------------|
D-2---------------2---------------0---------0---------------|
A-----------------------------------------------------------|
E-----------------------------------------------------------|
Motherfucker, You stole my stereo, you stole my stereo

e-------4---4-----------4---4-----------2-5-------2---2-----|
B-----4---5---4-------4---5---4-------2---------2---5---5-2-|
G---4-----------4---4-----------4---2---------2-------------|
D-2---------------2---------------0---------0---------------|
A-----------------------------------------------------------|
E-----------------------------------------------------------|
Well, Motherfucker, you stole my stereo, you stole my stereo, yeah.

CHORUS 1
Electric with distortion

C                              G
Hi-fi supersonic motherfuckin' stereo, with dynamic(?) sound
D                                                           Db  C
You play my records, and you play my 8-tracks too, you know you do
C                              G                          D   D#  E
Hi-fi supersonic motherfuckin' stereo with dynamic sound, ooooooooo

CHUCK SOLO (KEYS)

chords E and D

Keys aranged for guitar

  E           D
e-7-4---7---------------------------------|
B-----7---5-7-7/8\7-5---5-7/8\7-5---------|
G---------------------7-----------7-6-4---|
D---------------------------------------2-|
A-----------------------------------------|
E-----------------------------------------|

VERSE 2
(Here I thinks he's acutally playing a mixture of the chords
the picking, so the chords to use are E (002444(on the B string,
hammer on 5 every now and then)) and D (000232))
e-------4---4-----------4---4-----------2-5-------2---2-----|
B-----4---5---4-------4---5---4-------2---------2---5---5-2-|
G---4-----------4---4-----------4---2---------2-------------|
D-2---------------2---------------0---------0---------------|
A-----------------------------------------------------------|
E-----------------------------------------------------------|
Mohterfucker, you stole my Cheerios, you stole my Cheerios, yeah

e-------4---4-----------4---4-----------2-5-------2---2-----|
B-----4---5---4-------4---5---4-------2---------2---5---5-2-|
G---4-----------4---4-----------4---2---------2-------------|
D-2---------------2---------------0---------0---------------|
A-----------------------------------------------------------|
E-----------------------------------------------------------|
Mohterfucker, you stole my Cheerios, you stole my Cheerios, well

CHOURS 2:
C                                           G
Lightly toasted, super crunchy, super tasty breakfast treat, that I love to eat
D                                                  Db
I eat 'em for breakfast, for lunch and dinner too, you know I do
c                                           G
Lightly toasted, super crunchy, super tasty breakfast treat, that I love to eat
D     D#    E
ooooooooooooo

KEYS AND GUITAR SOLO

(Keys)
  E           D
e-7-4---7---------------------------------|
B-----7---5-7-7/8\7-5---5-7/8\7-5---------|
G---------------------7-----------7-6-4---|
D---------------------------------------2-|
A-----------------------------------------|
E-----------------------------------------|

(I can't figure out the guitar solo, if I do later I'll post it)

VERSE 3:

e-------4---4-----------4---4-----------2-5-------2---|
B-----4---5---4-------4---5---4-------2---------2---5-|
G---4-----------4---4-----------4---2---------2-------|
D-2---------------2---------------0---------0---------|
A-----------------------------------------------------|
E-----------------------------------------------------|
Motherfucker, you stole my G.I. Joe, you stole my G.I. Joe

e-------4---4-----------4---4-----------2-5-------2---2-----|
B-----4---5---4-------4---5---4-------2---------2---5---5-2-|
G---4-----------4---4-----------4---2---------2-------------|
D-2---------------2---------------0---------0---------------|
A-----------------------------------------------------------|
E-----------------------------------------------------------|
Motherfucker, you stole my G.I Joe, you stole my G.I. Joe

CHOURS 3:
C                                         G
All-American, ass-kickin', knife-weildin' G.I. Joe, with bionic arm
D
Hunt's the Germans, and it kills Koreans too, you know you do,
C                                         G
All-American, ass-kickin', knife-weildin' G.I. Joe, with bionic arm
D   D#   E
oooooooooo
             E
Motherfucker
Tap to rate this tab
# A B C D E F G H I J K L M N O P Q R S T U V W X Y Z