Song name
# A B C D E F G H I J K L M N O P Q R S T U V W X Y Z

Hondo Maclean - Keithies Done Himself A Mischief tab

Help us improve GuitareTab! Take a short survey!
                    'Keithie's Done Himself A Mischief' 
                               Hondo Maclean

This song is pretty easy - just thought id put it up here. 

Watch out for the chorus cos its quite hard to hear what the guitars are playin.

Tuning:

Db Ab Db Gb Bb eb


| /  slide up
| \  slide down
| h  hammer-on
| p  pull-off
| b  bend 
| gb gradual bend


Intro:

Guitar 1 (0:00)

eb|------------------------------------------------------|
Bb|------------------------------------------------------|
Gb|------------------------------------------------------|
Db|----3p2----------3---2--------5--7----8p7---7p5---5h7-|
Ab|-----------3h5------------3h5-------------------------|
Db|--------00-----0---0---0-------0---00-----0-----0-----|

Guitar 2 (0:00)

eb|-------------------------------------------------------------|
Bb|-------------------------------------------------------------|
Gb|-------------------------------------------------------------|
Db|--000------000------------000---------0-----0-----0----------|
Ab|--000------000------------000---------0-----0-----0----------|
Db|--000------000------------000---------0-----0-----0----------|

Guitar 1 (0:05)

eb|-----|
Bb|-----|
Gb|-----|
Db|-000-|
Ab|-000-|
Db|-000-|


Guitar 2 (0:05)

eb|-----|
Bb|-----|
Gb|-----|
Db|-000-|
Ab|-000-|
Db|-000-|

Guitar 1+2 (0:06)

eb|--------------------|
Bb|--------------------|
Gb|--------------------|
Db|-1p0-0-0--1\3333333-|
Ab|-1p0-0-0--1\3333333-|
Db|-1p0-0-0--1\3333333-|


Verse:                      

Guitar 1 (0:07)

eb|------------------------------------------------------------|
Bb|------------------------------------------------------------|
Gb|------------------------------------------------------------|
Db|-000-000--3p2----------3---2--------5--7----8p7---7p5---5h7-|
Ab|-000-000---------3h5------------3h5-------------------------|
Db|-000-000------00-----0---0---0-------0---00-----0-----0-----|

eb|---------------------------|
Bb|---------------------------|
Gb|---------------------------|
Db|-000-000-1p0-00--1\3333333-|
Ab|-000-000-1p0-00--1\3333333-|
Db|-000-000-1p0-00--1\3333333-|



Guitar 2 (0:07)

eb|--------------------------------------------------------------|
Bb|--------------------------------------------------------------|
Gb|--------------------------------------------------------------|
Db|-000-000-000-00-000-0-000-000-0-000-000-000-0-000-0-000-0-000-|
Ab|-000-000-000-00-000-0-000-000-0-000-000-000-0-000-0-000-0-000-|
Db|-000-000-000-00-000-0-000-000-0-000-000-000-0-000-0-000-0-000-|

eb|-------------------------|
Bb|-------------------------|
Gb|-------------------------|
Db|-000-000-000-00-1\3333333|
Ab|-000-000-000-00-1\3333333|
Db|-000-000-000-00-1\3333333|

Chorus:

Guitar 1 (0:29)

eb|-----------------------------------------------| X3
Bb|-------------3---1-----------------0---0---0---|
Gb|-----------2---0---0h2p0------------4---4---4--|
Db|-----3h5-----------------------3h5---0---0---0-|
Ab|-3h5-----------------------3h5-----------------|
Db|-----------------------------------------------|


Guitar 2 (0:29)

eb|x----| Strum Throughout Chorus
Bb|-3---|
Gb|-2---|
Db|-2---|
Ab|-0---|
Db|x----|


Last Time Round


Guitar 1 (0:44)

eb|----------------------------------------------|
Bb|-------------3---1----------------------------|
Gb|-----------2---0---0h2p0----------------------|
Db|-----3h5-------------------------------0-00-0-|
Ab|-3h5-----------------------10p8----8p7-0-00-0-|
Db|--------------------------------00-----0-00-0-|


Guitar 2 (0:44)

eb|x---------------------------------------------| 
Bb|-3--------------------------------------------|
Gb|-2--------------------------------------------|
Db|-2-------------------------8p7----7p5--0-00-0-|
Ab|-0-------------------------------------0-00-0-|
Db|x------------------------------00------0-00-0-|


Verse X1

Chorus X1

End of Chorus Second Time Round:


Guitar 1 (1:36)

eb|---------------------------------------------------------|
Bb|-------------3---1---------------------------------------|
Gb|-----------2---0---0h2p0---------------------------------|
Db|-----3h5-------------------------------------------------|
Ab|-3h5-----------------------10p8----8p7----7h888-8h101010-|
Db|--------------------------------00-----00----------------|


Guitar 2 (1:36)

eb|x----------------------------------------------------| 
Bb|-3---------------------------------------------------|
Gb|-2---------------------------------------------------|
Db|-2-------------------------8p7----7p5----5h777-7h888-|
Ab|-0---------------------------------------------------|
Db|x------------------------------00-----00-------------|


Interlude: (1:41)

Guitar 1

eb|------------------| X3
Bb|------------------|
Gb|-5----------------|
Db|---3-2-0-2-3-0----|
Ab|---------------3--|
Db|------------------|

Fourth Time: (1:44) 

eb|------------------| 
Bb|------------------|
Gb|-5----------------|
Db|---3-2-0-3h5------|
Ab|------------------|
Db|------------------|


eb|------------------| X3
Bb|------------------|
Gb|-5----------------|
Db|---3-2-0-2-3-0----|
Ab|---------------3--|
Db|------------------|

Last Time: (1:49)

eb|---------------------------| 
Bb|---------------------------|
Gb|-5---------------2\333/000-|
Db|---3-2-0-2-3-0-------------|
Ab|---------------3-----------|
Db|---------------------------|


Breakdown: (1:51)

eb|---------------------------------------------------------|  
Bb|---------------------------------------------------------|   
Gb|---------------------------------------------------------|   
Db|-0-0-0-0------0-0-0-0-----0h1-1\333--000-1p0-00-1\333333-|   
Ab|-0-0-0-0------0-0-0-0-----0h1-1\333--000-1p0-00-1\333333-|   
Db|-0-0-0-0------0-0-0-0-----0h1-1\333--000-1p0-00-1\333333-|   
                                                                
(1:58)                                                         
            
Guitar 1
                                                    
eb|----------------------------------------------------------|  
Bb|-------------------------------------10-10-10-10-10-11----| 
Gb|-------------------------------------13-13-13-13-13-13gb--|  
Db|-0-0-0-0-0-0-0--000-1p0-00-1\333333-----------------------|  
Ab|-0-0-0-0-0-0-0--000-1p0-00-1\333333-----------------------|  
Db|-0-0-0-0-0-0-0--000-1p0-00-1\333333-----------------------|  

Guitar 2

eb|----------------------------------------------------------------------|  
Bb|-------------------------------------10-10-10-10-10-------------------| 
Gb|-------------------------------------13-13-13-13-13-------------------|  
Db|-0-0-0-0-0-0-0--000-1p0-00-1\333333-----------------0h111111-1\333333-|  
Ab|-0-0-0-0-0-0-0--000-1p0-00-1\333333-----------------0h111111-1\333333-|  
Db|-0-0-0-0-0-0-0--000-1p0-00-1\333333-----------------0h111111-1\333333-|  


(2:07)

eb|---------------------------------------------------------|  
Bb|---------------------------------------------------------|   
Gb|---------------------------------------------------------|   
Db|-0-0-0-0------0-0-0-0-----0h1-1\333--000-1p0-00-1\333333-|   
Ab|-0-0-0-0------0-0-0-0-----0h1-1\333--000-1p0-00-1\333333-|   
Db|-0-0-0-0------0-0-0-0-----0h1-1\333--000-1p0-00-1\333333-|   
                                                                
(2:15) Note the change in Rythm in dual guiatr bit                                                        
                                                                
eb|----------------------------------------------------------|  
Bb|-----------------------------------10-10-10-10-10-11------| 
Gb|-----------------------------------13-13-13-13-13-13gb----|  
Db|-0-00-0-0-0-0-0-000-1p0-00-1\333333-----------------------|  
Ab|-0-00-0-0-0-0-0-000-1p0-00-1\333333-----------------------|  
Db|-0-00-0-0-0-0-0-000-1p0-00-1\333333-----------------------| 
     
Guitar 2

eb|----------------------------------------------------------------------|  
Bb|-------------------------------------10-10-10-10-10-------------------| 
Gb|-------------------------------------13-13-13-13-13-------------------|  
Db|-0-00-0-0-0-0-0-000-1p0-00-1\333333-----------------0h111111-1\333333-|  
Ab|-0-00-0-0-0-0-0-000-1p0-00-1\333333-----------------0h111111-1\333333-|  
Db|-0-00-0-0-0-0-0-000-1p0-00-1\333333-----------------0h111111-1\333333-|
   
(2:25)  

Guitar 1

eb|--------------------------|  
Bb|-11--11----11----11----11-| Repeat until the last time when you play
Gb|---13--13b---13b---13b----| Guitar two's part. 
Db|--------------------------|  
Ab|--------------------------|  
Db|--------------------------|        


Guitar 2
                                      
eb|-------------------|  
Bb|-------------------| Repeat till end 
Gb|-------------------|  
Db|-000-1p0-1\3333333-|  
Ab|-000-1p0-1\3333333-|  
Db|-000-1p0-1\3333333-| 
                                                             

Hope You Enjoy! 

E-Mail me with ne corrections or comments at onions666@hotmail.com



Related for Keithies Done Himself A Mischief tab