Honest Bob And The Factory-to-dealer Incentives - Head Like A Hole tab

[Main Riff, Verse]
e:--------------------------------------------------------------------------|
B:----9-------------9------------9------------------------------------------|
G:-9----9-6------99--9-6-------9---9-6---6/7--7/8---------------------------|
D:----------9------------9-------------9------------------------------------|
A:--------------------------------------------------------------------------|
E:--------------------------------------------------------------------------|

[Pre-Chorus]
e:--------------------------------------------------------------------------|
B:--------------------------------------------------------------------------|
G:--8/9--9/11--11/13--8/9--9/11--11/13--8/9--9/11--11/13/14-13--11--9-------|
D:--------------------------------------------------------------------------|
A:--------------------------------------------------------------------------|
E:--------------------------------------------------------------------------|

[Chorus]
Guitar 1 Play within these general notes and your surefire.
e:--------------------------------------------------------------------------|
B:--------------------------------------------------------------------------|
G:--9-9-8--9-8-9----6-6-6--9-8-9------------------------------6---8---------|
D:----------------------------------7-7-7---7-6-7-----9-9-9-----------------|
A:--------------------------------------------------------------------------|
E:--------------------------------------------------------------------------|

Guitar 2 Hit The root notes then do a quick arpeggio of the chords. 50's Doo Wop Style.
     E              C#m             A                 C
e:---12--------------9--------------5-----------------8---------------------|
B:---12--------------9--------------5-----------------8---------------------|
G:---13--------------9--------------6-----------------9---------------------|
D:---14--------------11-------------7-----------------10--------------------|
A:---14--------------11-------------7-----------------10--------------------|
E:---12--------------9--------------5-----------------8---------------------|
Tap to rate this tab
 
# A B C D E F G H I J K L M N O P Q R S T U V W X Y Z