Song name
# A B C D E F G H I J K L M N O P Q R S T U V W X Y Z

Honeyhoney - Little Toy Gun tab

------------------------------------------------------------------------|
------------------------------------------------------------------------|
------------------------------------------------------------------------|
------------------4-5----4-4-4-2-0----2-4-------------------------------|
----2---2-2--4-5--------------------------------------------------------|
--2---------------------------------------------------------------------|


------------------------------------------------------------------------|
------------------------------------------------------------------------|
-----------------------4-3----------------------------------------------|
------------------4-5-------4-5-4--4-2-0---2-0---0----------------------|
----2---2-2--4-5-------------------------4-----4---2--------------------|
--2---------------------------------------------------------------------|

this is my first tab.. i hope it useful!
Tap to rate this tab
# A B C D E F G H I J K L M N O P Q R S T U V W X Y Z