Song name
# A B C D E F G H I J K L M N O P Q R S T U V W X Y Z

Honeymoon Suite - New Girl Now tab

-------------------------------------------------------------------------------
                             New Girl Now - Honeymoon Suite
-------------------------------------------------------------------------------
Tabbed by: Kaelin Smith
E-mail: kaelinkirksmith@gmail.com

Tuning: Half step down

e|--------------|-----------|----------------|-----------|-------------------|
B|--------------|-----------|----------------|-----------|-------------------|
G|-----2--2-----|-----------|----------2-2---|-----------|----------2-2------|
D|-----2--2-----|--2----2---|--2---2---2-2---|--2----2---|--2---2---2-2------|
A|-----0--0-----|--2----2---|--2---2---0-0---|--2----2---|--2---2---0-0------|
E|-----------3--|--0----0---|--0---0-------3-|--0----0---|--0---0-------3----|

                               hot summer night      VERSE X4
e|-----0-----|--------------|----------{|---------------|--------------------|}
B|-----0-----|--------------|----------{|---------------|--------------------|}
G|-----------|-------7------|--7-------{|-9-------------|-9------------------|}
D|--2-----2--|--2----7------|--7-------{|-9------7------|-9-----7--7--7--5---|}
A|--2-----2--|--2----5------|--5-------{|-7------7------|-7-----7--7--7--5---|}
E|--0-----0--|--0-----------|----------{|-----0--5---0--|----0--5--5--5--3---|}


e|-----------0--0--|------------------|----------------|---------------------|
B|-----------0--0--|------------------|----------------|---------------------|
G|--------3--3--3--|----7-------------|----------------|--7------------------|
D|--2--2--2--2--2--|----7------7------|--2------2------|--7------7-----------|
A|--2--2--2--2--2--|----5---5--7------|--2------2------|--5---5--7-----------|
E|--0--0--0--0--0--|-----------5---5--|--0---0--0---0--|---------5---5-------|

                                     say it again, I've got a
e|------------0--|----------------|---------|-----------------|--------------|
B|----------0-0--|----------------|---------|-----------------|--------------|
G|------0h2------|--7-------------|---------|--7-----2--2-----|--------------|
D|--2------------|--7------7------|--2------|--7-----2--2-----|--2----2------|
A|--2------------|--5---5--7------|--2------|--5-----0--0-----|--2----2------|
E|--0------------|---------5---5--|--0---0--|--------------3--|--0----0------|
                                      ^this bar is in 2/2 time
                                                               a lot like you
e|-----------------|-----------|-----------------|----------|----------------|
B|-----------------|-----------|-----------------|----------|----------------|
G|----------2-2----|-----------|----------2-2----|----------|--7-------------|
D|--2---2---2-2----|--2----2---|--2---2---2-2----|--2----2--|--7-------------|
A|--2---2---0-0----|--2----2---|--2---2---0-0----|--2----2--|--5-------------|
E|--0---0-------3--|--0----0---|--0---0-------3--|--0----0--|----------------|

                                    VERSE X4
e|-------------------|{---------------|--------------------|}-----------0--0-|
B|-------------------|{---------------|--------------------|}-----------0--0-|
G|--7--7--7--7-------|{-9-------------|-9------------------|}--------3--3--3-|
D|--7--7--7--7-------|{-9------7------|-9-----7--7--7--5---|}--2--2--2--2--2-|
A|--5--5--5--5-------|{-7------7------|-7-----7--7--7--5---|}--2--2--2--2--2-|
E|--------------10\--|{-----0--5---0--|----0--5--5--5--3---|}--0--0--0--0--0-|

      I don't care
e|------------------|---------------|----------------|------------0----------|
B|------------------|---------------|----------------|----------0-0----------|
G|----7-------------|---------------|--7-------------|------0h2--------------|
D|----7------7------|--2------2-----|--7------7------|--2--------------------|
A|----5---5--7------|--2------2-----|--5---5--7------|--2--------------------|
E|-----------5---5--|--0---0--0--0--|---------5---5--|--0--------------------|

                      say it again
e|----------------|---------|--------------|----------|----------------------|
B|----------------|---------|--------------|----------|----------------------|
G|--7-------------|---------|--7----2-2----|----------|-----------2-2--------|
D|--7------7------|--2------|--7----2-2----|--2----2--|--2----2---2-2--------|
A|--5---5--7------|--2------|--5----0-0----|--2----2--|--2----2---0-0--------|
E|---------5---5--|--0---0--|-----------3--|--0----0--|--0----0-------3------|
                      ^this bar is in 2/2 time
                                          a lot like you
e|----------|------------------|----------|----------|-----------------------|
B|----------|------------------|----------|----------|-----------------------|
G|----------|-----------2-2----|----------|--7-------|--7--7--7--7-----7--7--|
D|--2----2--|--2----2---2-2----|--2----2--|--7-------|--7--7--7--7-----7--7--|
A|--2----2--|--2----2---0-0----|--2----2--|--5-------|--5--5--5--5-----5--5--|
E|--0----0--|--0----0-------3--|--0----0--|----------|-----------------------|

                       INTERLUDE
e|--------------------------|------------------------------|
B|--------------------------|------------------------------|
G|--------------------------|------------------------------|
D|--------------------------|------------------------------|
A|--------------------------|-------------------3----------|
E|--0--12--10\---0--10--9\--|--0--8--7\--0--3h5---h5-4p3~~~|                play all of
                                                                         the interlude twice

e|--------------------------|------------------------------------------------|
B|--------------------------|------------------------------------------------|
G|--------------------------|------------------------------------------------|
D|--------------------------|------------------------------------------------|
A|--------------------------|--------------------3---------------------------|
E|--0--12--10\---0--10--9\--|--0--8--7\---0--3h5---5p3-----------------------|

      SOLO
e|-----------------|---------------------------|-----------------------------|
B|-----------------|---------------------------|-------3---3---3---3---3h5--5|
G|-2b-2b-2br0-----0|-2b-2b-2b-2b-2br0-----0----|--2h4----4---4---4---4-------|
D|------------0h2--|-------------------0h2---2-|-----------------------------|
A|-----------------|---------------------------|-----------------------------|
E|-----------------|---------------------------|-0---------------------------|


e|-----------------------------------|---------15-----------------------------|
B|-3h5--3p0--3p0---------------------|----------------------------------------|
G|----------------2p0--2br0----------|----14b------14p12------12------12------|
D|---------------------------2p0--2b-|--------------------14------14----------|
A|-----------------------------------|----------------------------------------|
E|-----------------------------------|-0--------------------------------------|


e|-------------------------------------------------------|
B|-------------------------------------------------------|
G|-14h15--14p12------12h14p12------12------------12------|
D|---------------14------------14------14p12h14------14b-|
A|-------------------------------------------------------|
E|-------------------------------------------------------|



e|--------------------------------------------------------------|
B|------------15------15------15h17--15------15------15h17 17b--|
G|-----12/16------16------16-------------16------16-------------|
D|--------------------------------------------------------------|
A|--------------------------------------------------------------|
E|-12-----------------------------------------------------------|


e|---------------------------------------------------------|
B|---------------------------------------------------------|
G|-----12------12h14--14------12h14-12------12-------------|
D|-14------14-------------14------------14------14--12h14--|
A|---------------------------------------------------------|
E|---------------------------------------------------------|


e|------------12-------------------------------------------|
B|--------12------15h12--15h12--15b(17)--------------------|
G|-12h14---------------------------------------------------|
D|---------------------------------------------------------|
A|---------------------------------------------------------|
E|---------------------------------------------------------|

    I don't care
e|----------------|----------------|----------------|------------0--|
B|----------------|----------------|----------------|----------0-0--|
G|--7-------------|----------------|--7-------------|------0h2------|
D|--7------7------|--2------2------|--7------7------|--2------------|
A|--5---5--7------|--2------2------|--5---5--7------|--2------------|
E|---------5---5--|--0---0--0---0--|---------5---5--|--0------------|


e|----------------|---------|--------------|----------|----------------------|
B|----------------|---------|--------------|----------|----------------------|
G|--7-------------|---------|--7----2-2----|----------|----------2-2---------|
D|--7------7------|--2------|--7----2-2----|--2----2--|--2---2---2-2---------|
A|--5---5--7------|--2------|--5----0-0----|--2----2--|--2---2---0-0---------|
E|---------5---5--|--0---0--|-----------3--|--0----0--|--0---0-------3-------|
                       ^this bar is in 2/2 time

e|----------|-----------------|----------|-------------|---------------------|
B|----------|-----------------|----------|-------------|---------------------|
G|----------|----------2-2----|----------|--7----------|-7--7--7--7----7--7--|
D|--2----2--|--2---2---2-2----|--2----2--|--7----------|-7--7--7--7----7--7--|
A|--2----2--|--2---2---0-0----|--2----2--|--5----------|-5--5--5--5----5--5--|
E|--0----0--|--0---0-------3--|--0----0--|-------------|---------------------|


e|----------|-----------------|----------|-----------------|-----------------|
B|----------|-----------------|----------|-----------------|-----------------|
G|----------|----------2-2----|----------|----------2-2----|-----------------|
D|--2----2--|--2---2---2-2----|--2----2--|--2---2---2-2----|--2----2---------|
A|--2----2--|--2---2---0-0----|--2----2--|--2---2---0-0----|--2----2---------|
E|--0----0--|--0---0-------3--|--0----0--|--0---0-------3--|--0----0---------|



e|--------------|--------------|----------------------|----------|-----------|
B|--------------|--------------|----------------------|----------|-----------|
G|--7-----------|--7-----------|--7--7--7--7----7--7--|--2-------|--2--------|
D|--7-----------|--7-----------|--7--7--7--7----7--7--|--2-------|--2--------|
A|--5-----------|--5-----------|--5--5--5--5----5--5--|--0-------|--2--------|
E|--------------|--------------|----------------------|------3---|--0--------|
                                                           ^this bar is in 2/2 time



************************************

| /   slide up
| \   slide down
| h   hammer-on
| p   pull-off
| ~   vibrato
| +   harmonic
| x   Mute note
| b   Bend
| pb  Pre-bend
| br  Bend release
| pbr Pre-bend release
| brb Bend release bend

************************************
Tap to rate this tab
# A B C D E F G H I J K L M N O P Q R S T U V W X Y Z