Song name
# A B C D E F G H I J K L M N O P Q R S T U V W X Y Z

Honor By August - Only In Photographs tab

Intro: 

e|-------------------------------------|
B|----7--8----------7--8---------7--8--|
G|--7------------7------------7--------|
D|-------------------------------------|
A|-------------------------------------|
E|-------------------------------------|


e|-------------------------------------|
B|----7--8----------7--8-----------10--|
G|--7------------7------------7--------|
D|-------------------------------------|
A|-------------------------------------|
E|-------------------------------------|

e|-------------------------------------|
B|-----7--8--------7--8----------7--8--|
G|--7------------7------------7--------|
D|-------------------------------------|
A|-------------------------------------|
E|-------------------------------------|

e|---------------------|
B|---------------------|
G|--7---------7--------|
D|-----5--4------------|
A|---------------------|
E|---------------------|

Repeat It 2 times after the verse!!!
Tap to rate this tab
# A B C D E F G H I J K L M N O P Q R S T U V W X Y Z