Song name
# A B C D E F G H I J K L M N O P Q R S T U V W X Y Z

Honor Society - Full Moon Crazy tab

FULL MOON CRAZY-HONOR SOCIETY (tabbed by Rachael)

Intro
E|--------------------------------------|
B|--------------------------------------|
B|--66-69----------5-66-69----------9---|
D|--66-69---77-76-5-66-69---77-76--9---|
A|--44-47---77-76-3-44-47---77-76--7---|
E|----------55-54------------55-54------|

Verse
E|--------------------------------------|
B|--------------------------------------|
B|--66-69------------------5666---------|
D|--66-69---77-76-444-76--5666-776-----|
A|--44-47---77-76-444-76--3444-776-----|
E|----------55-54--222-54-------554-----|

E|--------------------------------------|
B|--------------------------------------|
B|--66-69------------------5666---------|
D|--66-69---77-76-444-76--5666-776-----|
A|--44-47---77-76-444-76--3444-776-----|
E|----------55-54--222-54-------554-----|

Pre-Chorus 
E|--------------------------------------|
B|--------------------------------------|
B|--------------------------------------|
D|--7~-9~-10~-11~-10-9-8-7-6-6----------|
A|--7~-9~-10~-11~-10-9-8-7-6-6----------|
E|--5~-7~-8~--9~--8--7-6-5-4-4----------|

Chorus


E|----------------------------------------------------------|
B|----------------------------------------------------------|
B|--66-69-999-----------66-69-999---------5-6-8-9-----------|
D|--66-69-999--77-6666--66-69-999--77-6---5-6-8-9-6-7-9-----|
A|--44-47-777--77-6666--44-47-777--77-6---3-4-6-7-6-7-9-----|
E|-------------55-4444-------------55-4-----------4-5-7-----|

E|--------------------------------------|
B|--------------------------------------|
B|--------------------------------------|
D|--6-7-10-11-4~------------------------|
A|--6-7-10-11-4~------------------------|
E|--4-5-8--9-2~------------------------|

Intro 

E|--------------------------------------|
B|--------------------------------------|
B|--66-69----------5-66-69----------9---|
D|--66-69---77-76-5-66-69---77-76--9---|
A|--44-47---77-76-3-44-47---77-76--7---|
E|----------55-54------------55-54------|

Verse

E|--------------------------------------|
B|--------------------------------------|
B|--66-69------------------5666---------|
D|--66-69---77-76-444-76--5666-776-----|
A|--44-47---77-76-444-76--3444-776-----|
E|----------55-54--222-54-------554-----|

E|--------------------------------------|
B|--------------------------------------|
B|--66-69------------------5666---------|
D|--66-69---77-76-444-76--5666-776-----|
A|--44-47---77-76-444-76--3444-776-----|
E|----------55-54--222-54-------554-----|

Pre-chorus

E|--------------------------------------|
B|--------------------------------------|
B|--------------------------------------|
D|--7~-9~-10~-11~-10-9-8-7-6-6----------|
A|--7~-9~-10~-11~-10-9-8-7-6-6----------|
E|--5~-7~-8~--9~--8--7-6-5-4-4----------|

Chorus
E|----------------------------------------------------------|
B|----------------------------------------------------------|
B|--66-69-999-----------66-69-999---------5-6-8-9-----------|
D|--66-69-999--77-6666--66-69-999--77-6---5-6-8-9-6-7-9-----|
A|--44-47-777--77-6666--44-47-777--77-6---3-4-6-7-6-7-9-----|
E|-------------55-4444-------------55-4-----------4-5-7-----|

E|--------------------------------------|
B|--------------------------------------|
B|--------------------------------------|
D|--6-7-10-11-4~------------------------|
A|--6-7-10-11-4~------------------------|
E|--4-5-8--9-2~------------------------|

Bridge
E|--------------------------------------|
B|--------------------------------------|
B|--------------------------------------|
D|--7-9-11-10----7-9-11---7--6----------|
A|--7-9-11-10----7-9-11---7--6----------|
E|--5-7-9--8-----5-7-9----5--4----------|

Chorus
E|-------------------------------------------|
B|-------------------------------------------|
B|---99-98-466-66---------99-98-466-66-------|
D|---99-98-466-66--76-44--99-98-466-66--7----|
A|---77-76-244-44--76-44--77-76-244-44--7----|
E|-----------------54-22----------------5----|

Outro
E|------------------------------------------------------------------|
B|------------------------------------------------------------------|
B|--5-6-8-9------------------------------------------5---8----666-9-|
D|--5-6-8-9-6-7-9-6-7-10-11---444444555555-444444--5-4-8-10-666-9-|
A|--3-4-6-7-6-7-9-6-7-10-11---444444-555555-444444--3-4-6-10-444-7-|
E|----------4-5-7-4-5-8-9----222222-333333--222222----2---8--------|


Tap to rate this tab
# A B C D E F G H I J K L M N O P Q R S T U V W X Y Z