Song name
# A B C D E F G H I J K L M N O P Q R S T U V W X Y Z

Honor Society - No Win Situation tab

This is just the chorus, I got it from their youtube video, if its wrong please
put up the right one because I really want to play it!


-----------------------------------------------|
-----------------------------------------------|
-------------------7---------------------------|
---7----7----4-----7---------------------------|    x2
---7----7----4-----5---------------------------|
---5----4----2---------------------------------|

-----------------------------------------------|
-----------------------------------------------|
-9----11----7----------------------------------|
-9----11----7-----7----------------------------|
-7----9-----5-----7----------------------------|
------------------5----------------------------|
Tap to rate this tab
# A B C D E F G H I J K L M N O P Q R S T U V W X Y Z