Song name
# A B C D E F G H I J K L M N O P Q R S T U V W X Y Z

Honor Society - Where Are You Now chords

Highlighted       Show chord diagrams
Enjoy! This....
hope you will like it!

Intro: F Dm Bb C
Verse1:
F
To my favorite teacher
told me never give up
Dm
To my favorite teacher
told me never give up
Bb
To the guys I missed
C
And the girls we kissed,
F
where are you now?
Verse2:
F
To my ex best friends
Don't know how we grew apart
Dm
To my favorite bands
and sing-along in my car
Bb
To the face I see
C
In my memories,
F
Where are you now?
Chorus:
               F
Where are you now?
Cause I'm thinkin' of you
Dm
You showed me how
How to live like I do
Bb
If it wasn't for you
C                       F
I would never be who I am

Verse3:
F
To my first girlfriend
I thought for sure was the one
Dm
To my last girlfriend
Sorry I screwed it up
Bb
To the ones I loved,
C
Didn't show it enough
F                    C
Where are you now?
(Repeat Chorus)

Bridge:
F
I know we'll never see those days again
Dm
And it means we'll never be that way again
Bb
But that's just how it goes
C
people change but I know
F
I won't forget you

Solo Tab: F Dm Bb C

E|-----------------------------------|
B|--11-9-11-11--9-11-12-11--9-7------|
G|-----------------------------------| x2
D|-----------------------------------|
A|-----------------------------------|
e|-----------------------------------|

E|------------------------9--------------------|
B|--9-11-12-12-12-11-9------9-------------11h12|
G|---------------------10-----10-11-11-11------|
D|---------------------------------------------|
A|---------------------------------------------|
e|---------------------------------------------|
(This is the right tab! for solo)

Verse4:
F
To the ones who cared
Who were there from the start
Dm
To the love that left
took a piece of my heart
Bb
To the few who'd swear
C
I never go anywhere
F
Where are you now?

Last Chorus:
               F
Where are you now?
Cause I'm thinkin' of you
Dm
You showed me how
How to live like I do
Bb
If it wasn't for you
C                       F
I would never be who I am
Bb
If it wasn't for you
C                       F
I would never be who I am

(Strum Once)
        Bb
If it wasn't for you
          C
I would be nothing
               F
Where are you now?
Tap to rate this tab
# A B C D E F G H I J K L M N O P Q R S T U V W X Y Z