Song name
# A B C D E F G H I J K L M N O P Q R S T U V W X Y Z

Honor Society - My Own Way tab

My Own Way
Honor Society (ft. Esmee Denters)

I tabbed this from this video:
http://www.youtube.com/watch?v=2NFMQsJu9pc
so see it for the strumming patterns

i don't know the names of the chords

Standard Tuning: EADGBe

Intro

e|----8------5------1----|
B|----8------6------1----|
G|----10-----7------3----|   x2
D|----10-----7------3----|
A|----8------5------1----|
E|----8------5------1----|

Verse

e|----1------5------6----|
B|----1------6------6----|
G|----2------7------7----|  x4
D|----3------7------8----|
A|----3------5------8----|
E|----1------5------6----|


Chorus

e|----1------5------5----| |----1------5------5------6----|
B|----1------5------6----| |----1------5------6------6----|
G|----2------5------7----| |----2------5------7------7----|  x2
D|----3------7------7----| |----3------7------7------8----|
A|----3------7------5----| |----3------7------5------8----|
E|----1------5------5----| |----1------5------5------6----|

after chorus

e|----1------5------5------6----|
B|----1------5------6------6----|
G|----2------5------7------7----|
D|----3------7------7------8----|
A|----3------7------5------8----|
E|----1------5------5------6----|

repeat verse
repeat chorus

**I HAVEN'T FIGURED OUT THE BRIDGE YET..

repeat chorus

do the after chorus twice

outro = repeat intro
Tap to rate this tab
# A B C D E F G H I J K L M N O P Q R S T U V W X Y Z