Song name
# A B C D E F G H I J K L M N O P Q R S T U V W X Y Z

Honor Society - When I Get Home chords

Highlighted       Show chord diagrams
This is my first tab, and I'm pretty sure this is how you play the song (this is 
how I play it, haha). Good luck, and I hope that it's right :)


    Cadd9
e |--3--------------|
B |--3--------------|
G |--0--------------|
D |--2--------------|
A |--3--------------|
E |-----------------|

    G
e |--3--------------|
B |--3--------------|
G |--0--------------|
D |--0--------------|
A |--2--------------|
E |--3--------------|

    D
e |--2--------------|
B |--3--------------|
G |--2--------------|
D |-----------------|
A |-----------------|
E |-----------------|

    E
e |-----------------|
B |-----------------|
G |-----------------|
D |--2--------------|
A |--2--------------|
E |-----------------|

    A7sus4
e |--3--------------|
B |--3--------------|
G |--2--------------|
D |-----------------|
A |-----------------|
E |-----------------|

Intro: Cadd9  G  D  E     Cadd9  G  E  D

Cadd9                G            E              D
     It's just past midnight, and I can't fall asleep
Cadd9            G       E                        D
     Huggin the pillow, pretending you're next to me
Cadd9          G               E                 D
     Need to hear your voice, need to hear you breathe
             Cadd9    G  A7sus4         D
Tell me is it hard to be away from me?

Cadd9          G                   E                 D
     You sound so damn cute when I wake you with my call
Cadd9                      G             E               D
     Gotta get through the summer, and I promise you this fall
                Cadd9     G       A7sus4  D
I will be right here with you again
                Cadd9   G       A7sus4    D
This is what we have to do til then

        [Chorus]
Cadd9                        G
Tell me what you know about love
      D                          E
I'll tell you what I know about love
Cadd9                      G
Tell me all the words that you love,
          A7sus4                         D
And I'll scream 'em from the top of my lungs
Cadd9                       G
Show me all the places you love
          A7sus4                     D
And I'll make 'em all the places I touch
      Cadd9         G            A7sus4    D
When I see you again when I get home
             Cadd9        G            A7sus4    D
Oh, and I'll see you again when I get home
            Cadd9   G   D   E
I'm commin' home

Cadd9   G   E   D

[Repeat Chorus]

Tap to rate this tab
 
# A B C D E F G H I J K L M N O P Q R S T U V W X Y Z