Song name
# A B C D E F G H I J K L M N O P Q R S T U V W X Y Z

Honor - Thousand Year Bonds chords

Highlighted       Show chord diagrams
Honor - Thousand years bond/Tysiącletnie kajdany

 Am   C  F


        Am              C       F
e|------0-0-0-1-3-3-3-1-0-0-0-1-1-1-1-1------------------------------------------|
B|------1-1-1-1-1-1-1-1-1-1-1-1-1-1-1-1------------------------------------------|
G|------2-2-2-2-2-2-2-2-0-0-0-0-2-2-2-2------------------------------------------|
D|------2-2-2-2-2-2-2-2-2-2-2-2-3-3-3-3------------------------------------------|
A|------0-0-0-0-0-0-0-0-3-3-3-3-3-3-3-3------------------------------------------|
E|------------------------------1-1-1-1------------------------------------------|


Am    C    F
Czym stałeś się w kajdanach religii
Am    C    F
Niszczącej więź z pradawnym mitem
Am    C    F
Mówiącej jak pokochać swych wrogów
Am    C    F
Pokochać strach, nie walczyć z niczym


C   F    Am    G
Od prawdy wciąż daleki
C   F    Am    G
Kaznodziejom złożyłeś hołd
C   F    Am    G
Największej hańbie na Twojej ziemi
C   (Dm)   G      C   (Dm)   G
Sprzedałeś los

        Am              C       F
e|------0-0-0-1-3-3-3-1-0-0-0-1-1-1-1-1------------------------------------------|
B|------1-1-1-1-1-1-1-1-1-1-1-1-1-1-1-1------------------------------------------|
G|------2-2-2-2-2-2-2-2-0-0-0-0-2-2-2-2------------------------------------------|
D|------2-2-2-2-2-2-2-2-2-2-2-2-3-3-3-3------------------------------------------|
A|------0-0-0-0-0-0-0-0-3-3-3-3-3-3-3-3------------------------------------------|
E|------------------------------1-1-1-1------------------------------------------|


Am   C  F
Gdy przyjdzie kres
Am   C  F
I nic do stracenia nie będzie już
Am   C  F
Na polach bitew, w imionach drzew
Am   C  F
W kurhanach przez które wzywała krew
Am   C  F
Nie znajdziesz życia


C   F    Am    G
Od prawdy wciąż daleki
C   F    Am    G
Kaznodziejom złożyłeś hołd
C   F    Am    G
Największej hańbie na Twojej ziemi
C   (Dm)   G      C   (Dm)   G
Sprzedałeś los



Am    C    F


C   F    Am    G
Od prawdy wciąż daleki
C   F    Am    G
Kaznodziejom złożyłeś hołd
C   F    Am    G
Największej hańbie na Twojej ziemi
C   (Dm)   G      C   (Dm)   G
Sprzedałeś los


C   (Dm)   G   Am



I don't speak polish so sorry if the chords don't correspond exactly to the verse tempo, 
but it should be ok.
Tap to rate this tab
# A B C D E F G H I J K L M N O P Q R S T U V W X Y Z