Song name
# A B C D E F G H I J K L M N O P Q R S T U V W X Y Z

Hoobastank - Out Of Control tab

Band: Hoobastank
Song: Out Of Control

Tuning: DROPPED D |-D-A-D-G-B-e-|

Verse                           3 Times
|---------------------------------|---------------------------------|
|-----8-------8-------8-------8---|-----7-------7-------7-------7---|
|---------------------------------|---------------------------------|
|---------------------------------|---------------------------------|
|-0---5---0---5---0---5---0---5---|-0---5---0---5---0---5---0---5---|
|-0-------0-------0-------0-------|-0-------0-------0-------0-------|

|---------------------------------|---------------------------------|
|-----5-------5-------5-------5---|---------------------------------|
|---------------------------------|---------------------------------|
|---------------------------------|---------------------------------|
|-0---3---0---3---0---3---0---3---|-0---5---0---5---0---5---5---5---|
|-0-------0-------0-------0-------|-0-------0-------0---5---5---5---|

then
|---------------------------------|---------------------------------|
|-----8-------8-------8-------8---|-----7-------7-------7-------7---|
|---------------------------------|---------------------------------|
|---------------------------------|---------------------------------|
|-0---5---0---5---0---5---0---5---|-0---5---0---5---0---5---0---5---|
|-0-------0-------0-------0-------|-0-------0-------0-------0-------|

|---------------------------------|---------------------------------|
|-----5-------5-------5-------5---|---------------------------------|
|---------------------------------|---------------------------------|
|---------------------------------|---------------------------------|
|-0---3---0---3---0---3---0---3---|-5---5---5---5---5---5---5---5---|
|-0-------0-------0-------0-------|-5---5---5---5---5---5---5---5---|

Pre Chorus
|---------------------------------|---------------------------------|
|---------------------------------|---------------------------------|
|---------------------------------|---------------------4---4---4---|
|---------------------------------|---------------------3---3---3---|
|-0---0---0---2---3---2---0---0---|-0---2---3---2---0---1---1---1---|
|-0---0---0---2---3---2---0---0---|-0---2---3---2---0---------------|

|---------------------------------|---------------------------------|
|---------------------------------|---------------------------------|
|---------------------------------|---------------------------------|
|---------------------------------|---------------------1---1---1---|
|-0---0---0---2---3---2---0---0---|-0---2---3---2---0---1---1---1---|
|-0---0---0---2---3---2---0---0---|-0---2---3---2---0---1---1---1---|

Chorus
|---------------------------------|---------------------------------|
|---------------------------------|---------------------------------|
|-------------9---9---9---9---9---|-------------12--12--12--12--12--|
|---------------------------------|---------------------------------|
|-0---0-------7---7---7---7---7---|-10--10-------9---9---9---9---9--|
|-0---0---------------------------|-10--10--------------------------|

|---------------------------------|---------------------------------|
|---------------------------------|---------------------------------|
|---------------------------------|-4---4---4---5---5---5---7---7---|
|---------------------------------|-4---4---4---5---5---5---7---7---|
|-5---5---5---5---5---5---5---5---|-2---2---2---3---3---3---5---5---|
|-5---5---5---5---5---5---5---5---|---------------------------------|

|---------------------------------|---------------------------------|
|---------------------------------|---------------------------------|
|-------------9---9---9---9---9---|-------------12--12--12--12--12--|
|---------------------------------|---------------------------------|
|-0---0-------7---7---7---7---7---|-10--10-------9---9---9---9---9--|
|-0---0---------------------------|-10--10--------------------------|

|---------------------------------|---------------------------------|
|---------------------------------|---------------------------------|
|---------------------------------|-7---7---7--11--11--11--12--12---|
|---------------------------------|-7---7---7-----------------------|
|-9---9---9---9---9---9---9---9---|-5---5---5---9---9---9--10--10---|
|-9---9---9---9---9---9---9---9---|---------------------------------|

Pre Verse
|---------------------------------|---------------------------------|
|---------------------------------|---------------------------------|
|-11--11--11--11--11--11--11--11--|-12--12--12--12--12--12--12--12--|
|--0---0---0---0---0---0---0---0--|--0---0---0---0---0---0---0---0--|
|---------------------------------|---------------------------------|
|---------------------------------|---------------------------------|

Verse 2                         2 Times
|---------------------------------|---------------------------------|
|-----8-------8-------8-------8---|-----7-------7-------7-------7---|
|---------------------------------|---------------------------------|
|---------------------------------|---------------------------------|
|-0---5---0---5---0---5---0---5---|-0---5---0---5---0---5---0---5---|
|-0-------0-------0-------0-------|-0-------0-------0-------0-------|

|---------------------------------|---------------------------------|
|-----5-------5-------5-------5---|---------------------------------|
|---------------------------------|---------------------------------|
|---------------------------------|---------------------------------|
|-0---3---0---3---0---3---0---3---|-0---5---0---5---0---5---5---5---|
|-0-------0-------0-------0-------|-0-------0-------0---5---5---5---|

then
|---------------------------------|---------------------------------|
|-8---8---8---8---8---8---8---8---|-7---7---7---7---7---7---7---7---|
|---------------------------------|---------------------------------|
|---------------------------------|---------------------------------|
|-5---5---5---5---5---5---5---5---|-5---5---5---5---5---5---5---5---|
|---------------------------------|---------------------------------|

|---------------------------------|---------------------------------|
|-5---5---5---5---5---5---5---5---|---------------------------------|
|---------------------------------|---------------------------------|
|---------------------------------|---------------------------------|
|-3---3---3---3---3---3---3---3---|-5---5---5---5---5---5---5---5---|
|---------------------------------|-5---5---5---5---5---5---5---5---|

Pre Chorus
|---------------------------------|---------------------------------|
|---------------------------------|---------------------------------|
|---------------------------------|---------------------4---4---4---|
|---------------------------------|---------------------3---3---3---|
|-0---0---0---2---3---2---0---0---|-0---2---3---2---0---1---1---1---|
|-0---0---0---2---3---2---0---0---|-0---2---3---2---0---------------|

|---------------------------------|---------------------------------|
|---------------------------------|---------------------------------|
|---------------------------------|---------------------------------|
|---------------------------------|---------------------1---1---1---|
|-0---0---0---2---3---2---0---0---|-0---2---3---2---0---1---1---1---|
|-0---0---0---2---3---2---0---0---|-0---2---3---2---0---1---1---1---|

Chorus
|---------------------------------|---------------------------------|
|---------------------------------|---------------------------------|
|-------------9---9---9---9---9---|-------------12--12--12--12--12--|
|---------------------------------|---------------------------------|
|-0---0-------7---7---7---7---7---|-10--10-------9---9---9---9---9--|
|-0---0---------------------------|-10--10--------------------------|

|---------------------------------|---------------------------------|
|---------------------------------|---------------------------------|
|---------------------------------|-4---4---4---5---5---5---7---7---|
|---------------------------------|-4---4---4---5---5---5---7---7---|
|-5---5---5---5---5---5---5---5---|-2---2---2---3---3---3---5---5---|
|-5---5---5---5---5---5---5---5---|---------------------------------|

|---------------------------------|---------------------------------|
|---------------------------------|---------------------------------|
|-------------9---9---9---9---9---|-------------12--12--12--12--12--|
|---------------------------------|---------------------------------|
|-0---0-------7---7---7---7---7---|-10--10-------9---9---9---9---9--|
|-0---0---------------------------|-10--10--------------------------|

|---------------------------------|---------------------------------|
|---------------------------------|---------------------------------|
|---------------------------------|-7---7---7--11--11--11--12--12---|
|---------------------------------|-7---7---7-----------------------|
|-9---9---9---9---9---9---9---9---|-5---5---5---9---9---9--10--10---|
|-9---9---9---9---9---9---9---9---|---------------------------------|

|---------------------------------|---------------------------------|
|---------------------------------|---------------------------------|
|---------------------------------|---------------------------------|
|-0---0-----------0---------------|-8---------------8---------------|
|-0---0-----------0---------------|-8---------------8---------------|
|-0---0-----------0---------------|-8---------------8---------------|
                                                    slow slide
|---------------------------------|---------------------------------|
|---------------------------------|---------------------------------|
|---------------------------------|---------------------------------|
|-3---------------3---------------|---------------------------------|
|-3---------------3---------------|-7---7---7---7---7---7---7---7---|
|-3---------------3---------------|-7---7---7---7---7---7---7---7---|
                  slow slide
|---------------------------------|---------------------------------|
|---------------------------------|---------------------------------|
|-------------9---9---9---9---9---|-------------12--12--12--12--12--|
|---------------------------------|---------------------------------|
|-0---0-------7---7---7---7---7---|-10--10-------9---9---9---9---9--|
|-0---0---------------------------|-10--10--------------------------|

|---------------------------------|---------------------------------|
|---------------------------------|---------------------------------|
|---------------------------------|-14--14--14--14--14--14--14--14--|
|---------------------------------|---------------------------------|
|-9---9---9---9---9---9---9---9---|-12--12--12--12--12--12--12--12--|
|-9---9---9---9---9---9---9---9---|---------------------------------|

Bridge                          2 Times
|---------------------------------|---------------------------------|
|---------------------------------|---------------------------------|
|---------------------------------|---------------------4---4---4---|
|---------------------------------|---------------------3---3---3---|
|-0---0-------2---3---2---0---0---|-----2---3---2---0---1---1---1---|
|-0---0-------2---3---2---0---0---|-----2---3---2---0---------------|

|---------------------------------|---------------------------------|
|---------------------------------|---------------------------------|
|---------------------------------|---------------------------------|
|---------------------------------|---------------------1---1---1---|
|-0---0-------2---3---2---0---0---|-----2---3---2---0---1---1---1---|
|-0---0-------2---3---2---0---0---|-----2---3---2---0---1---1---1---|

Interlude                       3 Times
|-------------0---0---0---0---0---|-0---0---0---0---0---0---0---0---|
|-------------5---5---5---5---5---|-5---3---3---3---6---6---6---6---|
|---------------------------------|---------------------------------|
|---------------------------------|---------------------------------|
|-0---0---------------------------|---------------------------------|
|-0---0---------------------------|---------------------------------|

then
|-------------0---0---0---0---0---|---------------------------------|
|-------------5---5---5---5---5---|---------------------------------|
|---------------------------------|---------------------------------|
|---------------------------------|---------------------------------|
|-0---0---------------------------|---------------------------------|
|-0---0---------------------------|---------------------------------|

Pre Chorus                      2 Times
|---------------------------------|---------------------------------|
|---------------------------------|---------------------------------|
|---------------------------------|---------------------4---4---4---|
|---------------------------------|---------------------3---3---3---|
|-0---0---0---2---3---2---0---0---|-0---2---3---2---0---1---1---1---|
|-0---0---0---2---3---2---0---0---|-0---2---3---2---0---------------|

|---------------------------------|---------------------------------|
|---------------------------------|---------------------------------|
|---------------------------------|---------------------------------|
|---------------------------------|---------------------------------|
|-0---0---0---2---3---2---0---0---|-0---2---3---2---0---1---1---1---|
|-0---0---0---2---3---2---0---0---|-0---2---3---2---0---1---1---1---|

Chorus
|---------------------------------|---------------------------------|
|---------------------------------|---------------------------------|
|-------------9---9---9---9---9---|-------------12--12--12--12--12--|
|---------------------------------|---------------------------------|
|-0---0-------7---7---7---7---7---|-10--10-------9---9---9---9---9--|
|-0---0---------------------------|-10--10--------------------------|

|---------------------------------|---------------------------------|
|---------------------------------|---------------------------------|
|---------------------------------|-4---4---4---5---5---5---7---7---|
|---------------------------------|-4---4---4---5---5---5---7---7---|
|-5---5---5---5---5---5---5---5---|-2---2---2---3---3---3---5---5---|
|-5---5---5---5---5---5---5---5---|---------------------------------|

|---------------------------------|---------------------------------|
|---------------------------------|---------------------------------|
|-------------9---9---9---9---9---|-------------12--12--12--12--12--|
|---------------------------------|---------------------------------|
|-0---0-------7---7---7---7---7---|-10--10-------9---9---9---9---9--|
|-0---0---------------------------|-10--10--------------------------|

|---------------------------------|---------------------------------|
|---------------------------------|---------------------------------|
|---------------------------------|-7---7---7--11--11--11--12--12---|
|---------------------------------|-7---7---7-----------------------|
|-9---9---9---9---9---9---9---9---|-5---5---5---9---9---9--10--10---|
|-9---9---9---9---9---9---9---9---|---------------------------------|

|---------------------------------|---------------------------------|
|---------------------------------|---------------------------------|
|---------------------------------|---------------------------------|
|-0---0-----------0---------------|-8---------------8---------------|
|-0---0-----------0---------------|-8---------------8---------------|
|-0---0-----------0---------------|-8---------------8---------------|
                                                    slow slide
|---------------------------------|---------------------------------|
|---------------------------------|---------------------------------|
|---------------------------------|---------------------------------|
|-3---------------3---------------|---------------------------------|
|-3---------------3---------------|-7---7---7---7---7---7---7---7---|
|-3---------------3---------------|-7---7---7---7---7---7---7---7---|
                  slow slide
|---------------------------------|---------------------------------|
|---------------------------------|---------------------------------|
|-------------9---9---9---9---9---|-------------12--12--12--12--12--|
|---------------------------------|---------------------------------|
|-0---0-------7---7---7---7---7---|-10--10-------9---9---9---9---9--|
|-0---0---------------------------|-10--10--------------------------|

|---------------------------------|---------------------------------|
|---------------------------------|---------------------------------|
|---------------------------------|-14--14--14--14--14--14--14--14--|
|---------------------------------|---------------------------------|
|-9---9---9---9---9---9---9---9---|-12--12--12--12--12--12--12--12--|
|-9---9---9---9---9---9---9---9---|---------------------------------|

Outro
|---------------------------------|---------------------------------|
|---------------------------------|---------------------------------|
|---------------------------------|---------------------4---4---4---|
|---------------------------------|---------------------3---3---3---|
|-0---0---0---2---3---2---0---0---|-0---2---3---2---0---1---1---1---|
|-0---0---0---2---3---2---0---0---|-0---2---3---2---0---------------|

|---------------------------------|---------------------------------|
|---------------------------------|---------------------------------|
|---------------------------------|---------------------------------|
|---------------------------------|---------------------1---1---1---|
|-0---0---0---2---3---2---0---0---|-0---2---3---2---0---1---1---1---|
|-0---0---0---2---3---2---0---0---|-0---2---3---2---0---1---1---1---|
Tap to rate this tab
 
# A B C D E F G H I J K L M N O P Q R S T U V W X Y Z