Guitaretab - guitar tabs
Song name
# A B C D E F G H I J K L M N O P Q R S T U V W X Y Z

Hoobastank - The Reason tab

----------------------------------------------------------------------------
			     SONG NAME - BAND NAME
----------------------------------------------------------------------------
Tabbed by: Daniel Kosakowski

Tuning: Standard(EADGBe)

e|--------------------------------------------------------------------------|
B|------------------9---------------9---------------9---------------9-------|
G|-----------9--11-----8-----9--11-----8-----9--11-----8-----9--11-----8----|
D|--------------------------------------------------------------------------|
A|---7(x16)-----------------------------------------------------------------|
E|--------------------------------------------------------------------------|

e|--------------------------------------------------------------------------|
B|-----7--9-------------7--9-------------7--9-------------7--9--------------|
G|--9--------8-------9--------8-------9--------8-------9--------8-----------|
D|--------------------------------------------------------------------------|
A|--------------------------------------------------------------------------|
E|--------------------------------------------------------------------------|

e|--------------------------------------------------------------------------|
B|-----4--5-------------4--5-------------4--5-------------4--5--------------|
G|--6--------4-------6--------4-------6--------4-------6--------4-----------|
D|--------------------------------------------------------------------------|
A|--------------------------------------------------------------------------|
E|--------------------------------------------------------------------------|


e|--------------------------------------------------------------------------|
B|---------9----------------9-----------------9---------------9-------------|
G|--9--11-----8------9--11-----8-------9--11-----8-----9--11-----8----------|
D|--------------------------------------------------------------------------|
A|--------------------------------------------------------------------------|
E|--------------------------------------------------------------------------|

e|--------------------------------------------------------------------------|
B|-----7--9-------------7--9-------------7--9-------------7--9--------------|
G|--9--------8-------9--------8-------9--------8-------9--------8-----------|
D|--------------------------------------------------------------------------|
A|--------------------------------------------------------------------------|
E|--------------------------------------------------------------------------|

e|--------------------------------------------------------------------------|
B|-----4--5-------------4--5-------------4--5-------------4--5--------------|
G|--6--------4-------6--------4-------6--------4-------6--------4-----------|
D|--------------------------------------------------------------------------|
A|--------------------------------------------------------------------------|
E|--------------------------------------------------------------------------|

e|--11h12(x16)--------------------------------------------------------------|
B|--------------------------------------------------------------------------|
G|--------------------------------------------------------------------------|
D|--------------------------------------------------------------------------|
A|--------------------------------------------------------------------------|
E|--------------------------------------------------------------------------|


CHORUS
e|------------------------------------------------------==------------------|
B|--------------------------------------------------------------------------|
G|1𥹑11-1-(x2)----6-6-66-6-6-(x2)----------------------------------------|
D|2-2-22-2-2---------6-6-66-6-6---------7-7-77-7-7(x2)----9-9-99-9-9(x2)----|
A|2-2-222-2---------4-4-44-4-4---------7-7-77-7-7--------9-9-99-9-9--------|
E|--------------------------------------5-5-55-5-5--------7-7-77-7-7--------|

e|--------------------------------------------------------------------------|
B|---------9----------------9-----------------9---------------9-------------|
G|--9--11-----8------9--11-----8-------9--11-----8-----9--11-----8----------|
D|--------------------------------------------------------------------------|
A|--------------------------------------------------------------------------|
E|--------------------------------------------------------------------------|

e|--------------------------------------------------------------------------|
B|-----7--9-------------7--9-------------7--9-------------7--9--------------|
G|--9--------8-------9--------8-------9--------8-------9--------8-----------|
D|--------------------------------------------------------------------------|
A|--------------------------------------------------------------------------|
E|--------------------------------------------------------------------------|
[ Tab from: http://www.guitaretab.com/h/hoobastank/130474.html ]
e|--------------------------------------------------------------------------|
B|---------9----------------9-----------------9---------------9-------------|
G|--9--11-----8------9--11-----8-------9--11-----8-----9--11-----8----------|
D|--------------------------------------------------------------------------|
A|--------------------------------------------------------------------------|
E|--------------------------------------------------------------------------|

e|--------------------------------------------------------------------------|
B|-----7--9-------------7--9-------------7--9-------------7--9--------------|
G|--9--------8-------9--------8-------9--------8-------9--------8-----------|
D|--------------------------------------------------------------------------|
A|--------------------------------------------------------------------------|
E|--------------------------------------------------------------------------|

e|--------------------------------------------------------------------------|
B|-----4--5-------------4--5-------------4--5-------------4--5--------------|
G|--6--------4-------6--------4-------6--------4-------6--------4-----------|
D|--------------------------------------------------------------------------|
A|--------------------------------------------------------------------------|
E|--------------------------------------------------------------------------|

e|--11h12(x16)--------------------------------------------------------------|
B|--------------------------------------------------------------------------|
G|--------------------------------------------------------------------------|
D|--------------------------------------------------------------------------|
A|--------------------------------------------------------------------------|
E|--------------------------------------------------------------------------|

CHORUS
e|--------------------------------------------------------------------------|
B|--------------------------------------------------------------------------|
G|1𥹑11-1-(x2)----6-6-66-6-6-(x2)----------------------------------------|
D|2-2-22-2-2---------6-6-66-6-6---------7-7-77-7-7(x2)----9-9-99-9-9(x2)----|
A|2-2-222-2---------4-4-44-4-4---------7-7-77-7-7--------9-9-99-9-9--------|
E|--------------------------------------5-5-55-5-5--------7-7-77-7-7--------|

BRIDGE
And the reason is you!!!(x4)
e|--------------------------------------------------------------------------|
B|--------------------------------------------------------------------------|
G|-------------1-1-1-1-----------------1-1-1-1-------1---1---1---1----------|
D|-7-7-7-7-----1-1-1-1-----7-7-7-7-----1-1-1-1-------2---2---2---2----------|
A|-7-7-7-7-----2-2-2-2-----7-7-7-7-----2-2-2-2-------2---2---2---2----------|
E|-5-5-5-5-----------------5-5-5-5------------------------------------------|

e|--------------------------------------------------------------------------|
B|---------9----------------9-----------------9---------------9-------------|
G|--9--11-----8------9--11-----8-------9--11-----8-----9--11-----8----------|
D|--------------------------------------------------------------------------|
A|--------------------------------------------------------------------------|
E|--------------------------------------------------------------------------|

e|--------------------------------------------------------------------------|
B|-----7--9-------------7--9-------------7--9-------------7--9--------------|
G|--9--------8-------9--------8-------9--------8-------9--------8-----------|
D|--------------------------------------------------------------------------|
A|--------------------------------------------------------------------------|
E|--------------------------------------------------------------------------|

e|--------------------------------------------------------------------------|
B|-----4--5-------------4--5-------------4--5-------------4--5--------------|
G|--6--------4-------6--------4-------6--------4-------6--------4-----------|
D|--------------------------------------------------------------------------|
A|--------------------------------------------------------------------------|
E|--------------------------------------------------------------------------|

e|--11h12(x16)--------------------------------------------------------------|
B|--------------------------------------------------------------------------|
G|--------------------------------------------------------------------------|
D|--------------------------------------------------------------------------|
A|--------------------------------------------------------------------------|
E|--------------------------------------------------------------------------|

CHORUS(x2)
e|--------------------------------------------------------------------------|
B|--------------------------------------------------------------------------|
G|1𥹑11-1-(x2)----6-6-66-6-6-(x2)----------------------------------------|
D|2-2-22-2-2---------6-6-66-6-6---------7-7-77-7-7(x2)----9-9-99-9-9(x2)----|
A|2-2-222-2---------4-4-44-4-4---------7-7-77-7-7--------9-9-99-9-9--------|
E|--------------------------------------5-5-55-5-5--------7-7-77-7-7--------|

END ON
e|----|
B|----|
G|-1--|
D|-1--|
A|-2--|
E|----|

| /  slide up
|   slide down
| h  hammer-on
| p  pull-off
| ~  vibrato
| +  harmonic
| x  Mute note
============================================================================
Related for The Reason tab