Guitaretab - guitar tabs
Song name
# A B C D E F G H I J K L M N O P Q R S T U V W X Y Z

Hoobastank - Escape tab

Tabbed by: Audio84ave
Email: yaadi_k@hotmail.de



Tuning: dropped D


Intro/Verse
e|-------------------------------------|--------------------------------------|
B|-------------------------------------|--------------------------------------|
G|-------0--------0--------0--------0--|-------0--------0--------0--------0---|
D|----3--------3--------3--------3-----|----3--------3------------------------|
A|-------------------------------------|----------------------3--------3------|
D|-5--------5--------5--------5--------|-3--------3--------2--------2---------|




Chorus
e|-------------------------------------|--------------------------------------|
B|-------------------------------------|--------------------------------------|
G|-------------------------------5-----|-----------3--------------------------|
D|-1---------5---------3---------5-----|-1---------3----------3-------5-------|
A|-1---------5---------3---------3-----|-1---------1----------3-------3-------|
E|-1---------5---------3---------------|-1--------------------3-------2-------|

end on
e|-------------|
B|-------------|
G|-------------|
D|-1-----------|
A|-1-----------|
E|-1-----------|




Bridge
e|--------------------------------------|
B|--------------------------------------|
G|--------------------------------------|	x2
D|-6-------------------8----------------|
A|-6-------------------8----------------|
E|-6-------------------8----------------|



[ Tab from: http://www.guitaretab.com/h/hoobastank/131069.html ]
Solo
e|-------------------------------------|--------------------------------------|
B|-------------------------------------|--------------------------------------|
G|-8--8--8-\7--7--7/-8--8--8-/10-10-10\|7--7--7-\3--3--3/-7--7--7-/10-10-10---|
D|-x--x--x--x--x--x--x--x--x--x--x--x--|x--x--x--x--x--x--x--x--x--x--x--x----|
A|-6--6--6-\5--5--5/-6--6--6-/8--8--8-\|5-5--5-\1--1--1/-5--5-5-/8--8--8----|
E|-------------------------------------|--------------------------------------|

e|-------------------------------------|--------------------------------------|
B|-------------------------------------|--------------------------------------|
G|-8--8--8-\7--7--7-/8--8--8-/10-10-10/|13-13-13-13-13-13/151515151515151515--|
D|-x--x--x--x--x--x--x--x--x--x--x--x--|x--x--x--x--x--x--xxxxxxxxxxxxxxxxxx--|
A|-6--6--6-\5--5--5-/6--6--6-/8--8--8-/|11-11-11-11-11-11/131313131313131313--|
E|-------------------------------------|--------------------------------------|




Chorus 2								x2	
e|---------------------------------------------------------------------------|
B|---------------------------------------------------------------------------|
G|---------------------------------------------------------------------------| 
D|-1------------------3------------------3-----------------5-----------------|
A|-1------------------3------------------3-----------------3-----------------|
E|-1------------------1------------------3-----------------2-----------------|





Song Order:

Intro x2
Verse x4
Chorus x1
Verse x4
Chorus x2
Bridge x2
Solo
Chorus2 x2
Chorus x2




| /  slide up
| \  slide down
| h  hammer-on
| p  pull-off
| ~  vibrato
| +  harmonic
| x  Mute note
===============================================================================




Related for Escape tab