Song name
# A B C D E F G H I J K L M N O P Q R S T U V W X Y Z

Hoobastank - Dont Tell Me tab

Help us improve GuitareTab! Take a short survey!
INTRO
 I put this part on the 9th fret but if you think it's different play it the fret you want!
--------------------------|
--------------------------|
-----9-------7------------|
---9---9---9--9-------7---|
-7-------7------5-5-5---7-|
--------------------------|

SOLO
---------------------------------12-15-12-15-12-15-12-15-(b)12-|
-------------------10----10-12-13------------------------------|
-9(h)12-9-----12-12--(b)9--------------------------------------|
---------12-10-------------------------------------------------|
---------------------------------------------------------------|
---------------------------------------------------------------|

---------------------------------12-15-12-15-12-15-12-15-(b)12-15-(b)17-|
-------------------10----10-12-13---------------------------------------|
-9(h)12-9-----12-12--(b)9-----------------------------------------------|
---------12-10----------------------------------------------------------|
------------------------------------------------------------------------|
------------------------------------------------------------------------|

If you want the whole good tab pick up what you like in the other tabs (for the chords). 
didn't wanted to re-copy what have been done in other tabs. This tab is MY point of you 
this song.

Good luck!
Related for Dont Tell Me tab