Song name
# A B C D E F G H I J K L M N O P Q R S T U V W X Y Z

Hoobastank - Good Enough tab

Band: Hoobastank
Song: Good Enough
Album: Every Man For Himself
Tuning: Drop D

INTRO:
e|---------12------12-----------10------10-----------10------10-----------8-|
B|-------8-------8-------8----8-------8-------8----8-------8-------8----8---|
G|----11------11------11---11------11------11---11------11------11---11-----|
D|--------------------------------------------------------------------------|
A|--------------------------------------------------------------------------|
D|--------------------------------------------------------------------------|

e|------8------|
B|----8------8-|
G|-11-----11---|
D|-------------|
A|-------------|
D|-------------|

CHORUS:
e|--------------------------|
B|--------5----------7------|
G|---------------------5555-|
D|----222---5555-000---5555-|
A|----222---5555-000---3333-|
D|----222---5555-000--------|

INTERLUDE:
e|--------------|
B|--------------|
G|----5555-7777-|
D|----5555-7777-|
A|----3333-5555-|
D|--------------|

Keep on playing those back and forth untill:
e|---------------------------------|
B|---------------------------------|
G|----9---11-12/14---12-11---------|
D|-------------------------12---10-|
A|---------------------------------|
D|---------------------------------|

End on:
e|---------|
B|---------|
G|---------|
D|----2222-|
A|----2222-|
D|----2222-|

And that's it. Everything repeats except for the interlude, so all you have to do is 
out the rythm and timing.
Tap to rate this tab
 
# A B C D E F G H I J K L M N O P Q R S T U V W X Y Z