Song name
# A B C D E F G H I J K L M N O P Q R S T U V W X Y Z

Hoobastank - Inside Of You tab

standard tuning

intro
|---------5-5-5-5-----5-5-5-5----------------5-5-5-5-|
|---------6-6-6-6-----6-6-6-6-----6-6-6-6----6-6-6-6-|
|---------7-7-7-7-----7-7-7-7-----5-5-5-5----7-7-7-7-|
|22-44-0----------0-----------3-----------7----------|
|22-44-0----------0-----------3-----------7----------|
|22-44-0----------0-----------3-----------7----------|

|------5555---5555-------------------------|
|------6666---6666---6666---5h6p5----------|
|------7777---7777---5555-------5----------|
|----0------0------8------7----------------|
|----0------0------8------7----------------|
|----0------0------8------7----------------|


|------------------------------------------------|
|------------------------------------------------|
|------------------------------------------------|x2
|------------------------11----1-------0h2h3p2p0-|
|----5-------0h3h5----33----33---0h2h3-----------|
|------0h3h5-------------------------------------|
then
|---------------------|
|---------------------|
|---------------------|
|---------------------|
|----5--------0h3h5p0-|
|-------0h3h5---------|

chorus
|---------5-5-5-5-----5-5-5-5----------------5-5-5-5-|
|---------6-6-6-6-----6-6-6-6-----6-6-6-6----6-6-6-6-|
|---------7-7-7-7-----7-7-7-7-----5-5-5-5----7-7-7-7-|
|22-44-0----------0-----------3-----------7----------|
|22-44-0----------0-----------3-----------7----------|
|22-44-0----------0-----------3-----------7----------|

|------5555---5555-------------------------|
|------6666---6666---6666---5h6p5----------|
|------7777---7777---5555-------5----------|
|----0------0------8------7----------------|
|----0------0------8------7----------------|
|----0------0------8------7----------------|

solo
|--------------------------------|
|--------------------------------|
|--------------------------------|
|-------------10h12--------7h10--|x2
|-------10h12-------10h12--7h10--|
|-10h12--------------------7h10--|

|----------------------------|x2 the play over again
|----------------------------|
|----------------------------|
|----------7h8------7h8------|
|------7h8-----7h8--7h8------|
|-8h10--------------7h8------|
then
|---------------------|
|---------------------|
|---------------------|
|---------------------|
|----5--------0h3h5p0-|
|-------0h3h5---------|

Then:
|-----------------------------|
|-----------------------------|
|-----------------------------|
|----00-00-33-77-00---88-1010-|
|----00-00-33-77-00---88-1010-|
|----00-00-33-77-00---88-1010-|
this should be right
thanks
rockoutsam
Tap to rate this tab
 
# A B C D E F G H I J K L M N O P Q R S T U V W X Y Z