Song name
# A B C D E F G H I J K L M N O P Q R S T U V W X Y Z

Hoobastank - I Dont Think I Love You tab

Band: Hoobastank
Song: I Don't Think I Love You
Album: For(n)ever
Tuning: Drop D

This is my first full tab ever submitted.  There's one guitar part missing, but for the 
part you can pull through this whole song with this tab I feel.  Please rate.  Thanks!

Intro

|---------------------------------------------------------------------------------|
|--------------------------------------------------------------------------15-15--|
|----------12-11-9------11-11-12-12-9-9------11-11-12-11-9-----11-11-12-12--------|
|-----9-9----------7--7------------------9-9---------------4-4--------------------|
|-7-7-----------------------------------------------------------------------------|
|---------------------------------------------------------------------------------| 3x

Verse (Questioning this a little)

|--------------------------------------------------------------------|
|--------------------------------------------------------------------|
|-----7-----7---7------7-----7---7------7-----7---7------7-----7---7-|
|-4-4---4-4---4----4-4---4-4---4----5-5---5-5---5--------------------|
|----------------------------------------------------5-5---5-5---5---|
|--------------------------------------------------------------------| 4x

Chrous

|---------------------------------------------------------------------------------|
|--------------------------------------------------------------------------15-15--|
|----------12-11-9------11-11-12-12-9-9------11-11-12-11-9-----11-11-12-12--------|
|-----9-9----------7--7------------------9-9---------------4-4--------------------|
|-7-7-----------------------------------------------------------------------------|
|---------------------------------------------------------------------------------| 2x

Verse 2

|--------------------------------------------------------------------|
|--------------------------------------------------------------------|
|-----7-----7---7------7-----7---7------7-----7---7------7-----7---7-|
|-4-4---4-4---4----4-4---4-4---4----5-5---5-5---5--------------------|
|----------------------------------------------------5-5---5-5---5---|
|--------------------------------------------------------------------| 4x

Chrous 2

|---------------------------------------------------------------------------------|
|--------------------------------------------------------------------------15-15--|
|----------12-11-9------11-11-12-12-9-9------11-11-12-11-9-----11-11-12-12--------|
|-----9-9----------7--7------------------9-9---------------4-4--------------------|
|-7-7-----------------------------------------------------------------------------|
|---------------------------------------------------------------------------------|  2x

|---------------------------|
|---------------------------|
|-9-9--11-11--12-12--7-7----|
|-9-9--11-11--12-12--7-7----|
|-7-7---9--9--10-10--5-5----|
|---------------------------|

|---------------------------------------------------------------------------------|
|--------------------------------------------------------------------------15-15--|
|----------12-11-9------11-11-12-12-9-9------11-11-12-11-9-----11-11-12-12--------|
|-----9-9----------7--7------------------9-9---------------4-4--------------------|
|-7-7-----------------------------------------------------------------------------|
|---------------------------------------------------------------------------------|

Bridge

|-----------------------------------------------------------|
|-----------------------------------------------------------|
|-----7-14-12-11--7-14-12-11------7-14-12-11--7-14-12-11----|
|-----------------------------------------------------------|
|-7-7-------------------------5-5---------------------------|
|-----------------------------------------------------------|

|--------------------------------------------------------------------|
|--------------------------------------------------------------------|
|-----------------------------5-5-5-7-7-7-9-9-9-11-11-11-12-12-12----|
|-----11-12-11-9--11-12-11-9-----------------------------------------|
|-9-9-------------------------3-3-3-5-5-5-7-7-7--9--9--9-10-10-10----|
|--------------------------------------------------------------------| 2x

Chorus 3

|---------------------------------------------------------------------------------|
|--------------------------------------------------------------------------15-15--|
|----------12-11-9------11-11-12-12-9-9------11-11-12-11-9-----11-11-12-12--------|
|-----9-9----------7--7------------------9-9---------------4-4--------------------|
|-7-7-----------------------------------------------------------------------------|
|---------------------------------------------------------------------------------|  2x

|---------------------------|
|---------------------------|
|-9-9--11-11--12-12--7-7----|
|-9-9--11-11--12-12--7-7----|
|-7-7---9--9--10-10--5-5----|
|---------------------------|

|---------------------------------------------------------------------------------|
|--------------------------------------------------------------------------15-15--|
|----------12-11-9------11-11-12-12-9-9------11-11-12-11-9-----11-11-12-12--------|
|-----9-9----------7--7------------------9-9---------------4-4--------------------|
|-7-7-----------------------------------------------------------------------------|
|---------------------------------------------------------------------------------|

End with Chorus Riff

User: veedub83
Tap to rate this tab
# A B C D E F G H I J K L M N O P Q R S T U V W X Y Z