Song name
# A B C D E F G H I J K L M N O P Q R S T U V W X Y Z

Hoobastank - Youre The One tab

-------------------------------------------------------------------------------
			     You're The One - Hoobastank
-------------------------------------------------------------------------------
Tabbed by:FlamingRock13
Email:TheWhofan101@aim.com

Tuning:Standard

This is my first tab and I'm 99.9% sure it's not perfect.

Intro
e|--------------------------------------------------------------------------|
B|--------------13----------------------------13----------------------------|
G|-------14---------14-----14^qbr-----14----------14-----14^qbr-------------|
D|----14----14----------14----------------14----------14--------------------|x2
A|-12------------------------------12---------------------------------------|
E|--------------------------------------------------------------------------|

Verse 1
e|--------------------------------------------------------------------------|
B|--------------13----------------------------13----------------------------|
G|-------14---------14-----14^qbr-----14----------14-----14^qbr-------------|
D|----14----14----------14----------------14----------14--------------------|x8
A|-12------------------------------12---------------------------------------|
E|--------------------------------------------------------------------------|

Pre-Chorus
e|--------------------------------------------------------------------------|
B|--------------------------------------------------------------------------|
G|--------------------------------------------------------------------------|
D|-8-8-8-8-8-8-8-8-7-7-7-7-7-7-7-7-6-6-6-6-6-6-6-6-6-6-6-6-6-6-6-6----------|
A|-8-8-8-8-8-8-8-8-7-7-7-7-7-7-7-7-6-6-6-6-6-6-6-6-6-6-6-6-6-6-6-6----------|
E|-6-6-6-6-6-6-6-6-5-5-5-5-5-5-5-5-4-4-4-4-4-4-4-4-4-4-4-4-4-4-4-4----------|

e|--------------------------------------------------------------------------|
B|--------------------------------------------------------------------------|
G|--------------------------------------------------------------------------|
D|-8-8-8-8-8-8-8-8-8-8-8-8-8-8-8-8------------------------------------------|
A|-8-8-8-8-8-8-8-8-8-8-8-8-8-8-8-8------------------------------------------|
E|-6-6-6-6-6-6-6-6-6-6-6-6-6-6-6-6------------------------------------------|

Chorus
e|--------------------------------------------------------------------------|
B|--------------------------------------------------------------------------|
G|---------------------------------8-8-8-8-8-8-8-8--------------------------|
D|-8-8-8-8-8-8-8-8-7-7-7-7-7-7-7-7-8-8-8-8-8-8-8-8-8-8-8-8-8-8-8-8----------|
A|-8-8-8-8-8-8-8-8-7-7-7-7-7-7-7-7-6-6-6-6-6-6-6-6-8-8-8-8-8-8-8-8----------|
E|-6-6-6-6-6-6-6-6-5-5-5-5-5-5-5-5-----------------6-6-6-6-6-6-6-6----------|

e|--------------------------------------------------------------------------|
B|--------------------------------------------------------------------------|
G|-7-7-7-7-7-7-7-7-5-5-5-5-5-5-5-7-8-----8-----8-----8-----8---8------------|
D|-7-7-7-7-7-7-7-7-5-5-5-5-5-5-5-7-8-----8-----8-----8-----8---8------------|x2
A|-5-5-5-5-5-5-5-5-3-3-3-3-3-3-3-5-6-----6-----6-----6-----6---6------------|
E|-----------------------------------6-6---6-6---6-6---6-6---6----6---------|

Play after 2nd time
e|--------------------------------------------------------------------------|
B|--------------------------------------------------------------------------|
G|--------------------------------------------------------------------------|
D|-8-----8---8-----8--------------------------------------------------------|
A|-8-----8---8-----8--------------------------------------------------------|
E|-6-6-6-6-6-6-6-6-6--------------------------------------------------------|

e|--------------------------------------------------------------------------|
B|--------------13----------------------------13----------------------------|
G|-------14---------14-----14^qbr-----14----------14--14~-------------------|
D|----14----14----------14----------------14--------------------------------|x2
A|-12------------------------------12---------------------------------------|
E|--------------------------------------------------------------------------|

Verse 2 (same as 1) 

Pre-Chorus 2
e|--------------------------------------------------------------------------|
B|--------------------------------------------------------------------------|
G|---------------------------------5-5-5-5-5-5-5-5-5-5-5-5-5-5-5-5----------|
D|-8-8-8-8-8-8-8-8-7-7-7-7-7-7-7-7-5-5-5-5-5-5-5-5-5-5-5-5-5-5-5-5----------|
A|-8-8-8-8-8-8-8-8-7-7-7-7-7-7-7-7-3-3-3-3-3-3-3-3-3-3-3-3-3-3-3-3----------|
E|-6-6-6-6-6-6-6-6-5-5-5-5-5-5-5-5------------------------------------------|

e|--------------------------------------------------------------------------|
B|--------------------------------------------------------------------------|
G|-7-7-7-7-7-7-7-7-7-7-7-7-7-7-7-7------------------------------------------|
D|-7-7-7-7-7-7-7-7-7-7-7-7-7-7-7-7------------------------------------------|
A|-5-5-5-5-5-5-5-5-5-5-5-5-5-5-5-5------------------------------------------|
E|--------------------------------------------------------------------------|

Chorus 2
e|--------------------------------------------------------------------------|
B|--------------------------------------------------------------------------|
G|---------------------------------8-8-8-8-8-8-8-8--------------------------|
D|-8-8-8-8-8-8-8-8-7-7-7-7-7-7-7-7-8-8-8-8-8-8-8-8-8-8-8-8-8-8-8-8----------|
A|-8-8-8-8-8-8-8-8-7-7-7-7-7-7-7-7-6-6-6-6-6-6-6-6-8-8-8-8-8-8-8-8----------|
E|-6-6-6-6-6-6-6-6-5-5-5-5-5-5-5-5-----------------6-6-6-6-6-6-6-6----------|

e|--------------------------------------------------------------------------|
B|--------------------------------------------------------------------------|
G|-7-7-7-7-7-7-7-7-5-5-5-5-5-5-5-7-8-----8-----8-----8-----8---8------------|
D|-7-7-7-7-7-7-7-7-5-5-5-5-5-5-5-7-8-----8-----8-----8-----8---8------------|x2
A|-5-5-5-5-5-5-5-5-3-3-3-3-3-3-3-5-6-----6-----6-----6-----6---6------------|
E|-----------------------------------6-6---6-6---6-6---6-6---6----6---------|

Play after 2nd time
e|--------------------------------------------------------------------------|
B|--------------------------------------------------------------------------|
G|--------------------------------------------------------------------------|
D|-8-----8---8-----8-----8---8---8------------------------------------------|
A|-8-----8---8-----8-----8---8---8------------------------------------------|
E|-6-6-6-6-6-6-6-6-6-6-6-6-6-6-6-6------------------------------------------|

Bridge
e|--------------------------------------------------------------------------|
B|--------------------------------------------------------------------------|
G|--------------------------------------------------------------------------|
D|-7-7-7-7-7-7-7-7-7-7-7-8-8-8-10-10-8-8-8-8-8-8-8-8-8-8-8-8-8-8-8-7--------|
A|--------------------------------------------------------------------------|
E|--------------------------------------------------------------------------|

e|--------------------------------------------------------------------------|
B|--------------------------------------------------------------------------|
G|--------------------------------------------------------------------------|x3
D|-5-5-5-5-5-5-5-5-5-5-5-3-3-3-1-1-0-0-0-0-0-0-0-0-1-1-1-3-3-3-3-3----------|
A|--------------------------------------------------------------------------|
E|--------------------------------------------------------------------------|

e|--------------------------------------------------------------------------|
B|--------------13----------------------------13----------------------------|
G|-------14---------14-----14^qbr-----14----------14-----14^qbr-------------|
D|----14----14----------14----------------14----------14--------------------|x2
A|-12------------------------------12---------------------------------------|
E|--------------------------------------------------------------------------|

Chorus 3
e|--------------------------------------------------------------------------|
B|--------------------------------------------------------------------------|
G|---------------------------------8-8-8-8-8-8-8-8--------------------------|
D|-8-8-8-8-8-8-8-8-7-7-7-7-7-7-7-7-8-8-8-8-8-8-8-8-8-8-8-8-8-8-8-8----------|
A|-8-8-8-8-8-8-8-8-7-7-7-7-7-7-7-7-6-6-6-6-6-6-6-6-8-8-8-8-8-8-8-8----------|
E|-6-6-6-6-6-6-6-6-5-5-5-5-5-5-5-5-----------------6-6-6-6-6-6-6-6----------|

e|--------------------------------------------------------------------------|
B|--------------------------------------------------------------------------|
G|-7-7-7-7-7-7-7-7-5-5-5-5-5-5-5-7-8-----8-----8-----8-----8---8------------|
D|-7-7-7-7-7-7-7-7-5-5-5-5-5-5-5-7-8-----8-----8-----8-----8---8------------|x2
A|-5-5-5-5-5-5-5-5-3-3-3-3-3-3-3-5-6-----6-----6-----6-----6---6------------|
E|-----------------------------------6-6---6-6---6-6---6-6---6----6---------|

Play after 2nd time
e|--------------------------------------------------------------------------|
B|--------------------------------------------------------------------------|
G|--------------------------------------------------------------------------|
D|-8-----8---8-----8--------------------------------------------------------|
A|-8-----8---8-----8--------------------------------------------------------|
E|-6-6-6-6-6-6-6-6-6--------------------------------------------------------|

Outro
e|--------------------------------------------------------------------------|
B|--------------13----------------------------13----------------------------|
G|-------14---------14-----14^qbr-----14----------14-----14^qbr-------------|
D|----14----14----------14----------------14----------14--------------------|
A|-12------------------------------12---------------------------------------|
E|--------------------------------------------------------------------------|


e|--------------------------------------------------------------------------|
B|--------------13----------------------------13----------------------------|
G|-------14---------14-----14^qbr-----14----------14------------------------|
D|----14----14----------14----------------14----------14--------------------|x2
A|-12------------------------------12--------------------12-----------------|
E|--------------------------------------------------------------------------|




| /  slide up
| \  slide down
| h  hammer-on
| p  pull-off
| ~  vibrato
| +  harmonic
| x  Mute note
|^qbr quarter bend and release
===============================================================================
Tap to rate this tab
# A B C D E F G H I J K L M N O P Q R S T U V W X Y Z