Song name
# A B C D E F G H I J K L M N O P Q R S T U V W X Y Z

Hoobastank - So Close So Far tab

Artist: Hoobastank
Song: So Close, So Far
Album: For(N)ever
Tuning: Standard

3/5 = Slide up
5\3 = Slide down

Intro/Verse
e|-3---3---3---3---3---3---3---3/5\3---3---3---3---3---3---3---3---|
B|---1---1---1---1---0---0---0-------1---1---1---1---0---0---0---0-|
G|-----------------------------------------------------------------|
D|-----------------------------------------------------------------|
A|-----------------------------------------------------------------|
E|-----------------------------------------------------------------|

e|-3---3---3---3---3---3---3---3---5---5---5---5---3---3---3---3---|
B|---1---1---1---1---0---0---0---0---------------------------------|
G|-----------------------------------5---5---5---5---4---4---4---4-|
D|-----------------------------------------------------------------|
A|-----------------------------------------------------------------|
E|-----------------------------------------------------------------|

e|-4---4---4---4---3---3---3---3--------------| And if you want to
B|--------------------------------------------| play that high note,
G|---5---5---5---5---4---4---4---4------------| slide up to
D|---------------------------------| the 20---|th fret on
A|--------------------------------------------| the B and e string.
E|--------------------------------------------|

Chorus
e|-3-------0-------5-------4------6------------------------|
B|-5-------0-------5-------4------6------------------------|
G|-5-(x16)-0-(x16)-5-(x16)-5-(x8)-7-(x8)-------------------|
D|-5-------2-------7-------6------8------------------------|
A|-3-------2-------7-------6------8------------------------|
E|---------0-------5-------4------6------------------------|

Bridge
e|-1-------5-------5-------6-------------------------------|
B|-1-------5-------6-------6-------------------------------|
G|-2-(x16)-6-(x16)-7-(x16)-7-(x16)-------------------------|
D|-3-------7-------7-------8-------------------------------|
A|-3-------7-------5-------8-------------------------------|
E|-1-------5---------------6-------------------------------|

Bridge - Guitar 2
e|-3--5--3------------3--5--3------------3--5--3------------3--5--3--5-|
B|----------6--5-6-5-----------6--5-6-5-----------6--5-6-5-------------|
G|---------------------------------------------------------------------|
D|---------------------------------------------------------------------|
A|---------------------------------------------------------------------|
E|---------------------------------------------------------------------|

e|-3---3---3---3-5-3--3---3---3---3-5-3--3---3---3---3-5-3--3-5-3---3-5-3--|
B|---1---1---1-------1--1---1---1-------1--1---1---1-------1------1-------1|
G|-------------------------------------------------------------------------|
D|-------------------------------------------------------------------------|
A|-------------------------------------------------------------------------|
E|-------------------------------------------------------------------------|

Pre-Chorus "I miss being at home..."
e|-3---3---3---3---3---3---3---4---4---4---4---3-|
B|---1---1---1---1---0---0---0-------------------|
G|-------------------------------5---5---5---5---|
D|-----------------------------------------------|
A|-----------------------------------------------|
E|-----------------------------------------------|

Then the chorus pretty much repeats itself til the end of the song. Hope this 
helps you guys out. Enjoy.
Tap to rate this tab
# A B C D E F G H I J K L M N O P Q R S T U V W X Y Z