Song name
# A B C D E F G H I J K L M N O P Q R S T U V W X Y Z

Hoobastank - So Close So Far tab

Artist: Hoobastank
Song: So Close, So Far
Album: For(N)ever
Tuning: Standard

4/6 = Slide up
6\4 = Slide down

Intro/Verse
e|-4---4---4---4---4---4---4---4/6\4---4---4---4---4---4---4---4---|
B|---2---2---2---2---1---1---1-------2---2---2---2---1---1---1---1-|
G|-----------------------------------------------------------------|
D|-----------------------------------------------------------------|
A|-----------------------------------------------------------------|
E|-----------------------------------------------------------------|

e|-4---4---4---4---4---4---4---4---6---6---6---6---5---5---5---5---|
B|---2---2---2---2---1---1---1---1---------------------------------|
G|-----------------------------------6---6--6---6---6---6---6---6-|
D|-----------------------------------------------------------------|
A|-----------------------------------------------------------------|
E|-----------------------------------------------------------------|

e|-4---4---4---4---3---3---3---3--------------| For the
B|--------------------------------------------| high note,
G|---5---5---5---5---4---4---4---4------------| slide up to
D|--------------------------------------------| the 20th fret on
A|--------------------------------------------| the B and e string.
E|--------------------------------------------|

Chorus
e|-3-------0-------5-------4------6------------------------|
B|-5-------0-------5-------4------6------------------------|
G|-5-(x16)-0-(x16)-5-(x16)-5-(x8)-7-(x8)-------------------|
D|-5-------2-------7-------6------8------------------------|
A|-3-------2-------7-------6------8------------------------|
E|---------0-------5-------4------6------------------------|

Bridge
e|-1-------5-------5-------6-------------------------------|
B|-1-------5-------6-------6-------------------------------|
G|-2-(x16)-6-(x16)-7-(x16)-7-(x16)-------------------------|
D|-3-------7-------7-------8-------------------------------|
A|-3-------7-------5-------8-------------------------------|
E|-1-------5---------------6-------------------------------|

Bridge - Guitar 2
e|-3--5--3------------3--5--3------------3--5--3------------3--5--3--5-|
B|----------6--5-6-5-----------6--5-6-5-----------6--5-6-5-------------|
G|---------------------------------------------------------------------|
D|---------------------------------------------------------------------|
A|---------------------------------------------------------------------|
E|---------------------------------------------------------------------|

e|-4---4---4---4-6-4--4---4---4---4-6-4--4---4---4---4-6-4--4-6-4---4-6-4--|
B|---2---2---2-------2--2---2---2-------2--2---2---2-------2------2-------2|
G|-------------------------------------------------------------------------|
D|-------------------------------------------------------------------------|
A|-------------------------------------------------------------------------|
E|-------------------------------------------------------------------------|

Pre-Chorus "I miss being at home..."
e|-4---4---4---4--4----4--4---5---6---4---4----3-|
B|---2---2---2---2---1---1---1-------------------|
G|-------------------------------6---5---5---5---|
D|-----------------------------------------------|
A|-----------------------------------------------|
E|-----------------------------------------------|
By:Cezar Neves
Tap to rate this tab
 
# A B C D E F G H I J K L M N O P Q R S T U V W X Y Z