Song name
# A B C D E F G H I J K L M N O P Q R S T U V W X Y Z

Hoobastank - Crawling In The Dark Acoustic tab

There's a pretty good version of this song up, but the tuning is wrong making it 
to play and sound a little off. This tuning makes
it sound right and makes it easier. This song should be tuned in open E minor as opposed 
an open E. Pretty much the same tuning but the G
string should stay as a G....

This won't be a great tab, but I'll try to give you all the notes you need.

Tabbed by Tony Cook of The Foil

Intro:

E--0---------------------------------|
B--0--------2-3-2--------------------|
G--0---------------------------------|
E--0h2-2-----------5-4--2-0----------|
B--0h2-2----------------2-0----------|
E--0h2-2-----2-2-2------2-0----------|x3

last time:
E--0-----0---------------|
B--3p2-/-5---------------|
G--2---/-4---------------|
E--0-----0---------------|
B--3-----0---------------|
E--------0---------------|

Verse:
E---0-0--0----0-0--0---0---0--0--0------------------|
B---0-0--0----0-0--0---3-/-5--3--0------------------|
G-0h2-2--1--0h2-2--1---2-/-4--2--1------------------|
E-0h2-2--0--0h2-2--0---0---0--0--0------------------|
B-0h2-2--0--0h2-2--0---3---0--3--0------------------|
E-0h2-2--0--0h2-2--0-------0-----0------------------|

Use your thumb to hit the low E here and swap the place of the 045 chord with the 010 
on the second round

Chorus:
E---------------------0-0-0-0--0-0-0-0---|
B---------------------3-3-3/5--3-3-3/5---|
G---------1---------1-2-2-2/4--2-2-2/4---|
E-0h4-4/7-0-0h4-4/7-0-0-0-0-0--0-0-0-0---|
B-0h2-2/5-0-0h2-2/5-0-3-3-3/5--3-3-3/5---|
E-0h2-2/5-0-0h2-2/5-0-0-0-0-0--0-0-0-0---| x2

Bridge:
E----------------------------|
B----------------------------|
G----------------------------|
E-4-4-4-4-4-4-4-4-4-4-4-5-5--|
B-0h2-2-0h2-2-0h2-2-0h2-3-3--|
E-0h2-2-0h2-2-0h2-2-0h2-3-3--|x2

E-0--0-----0--0-----0--0-----0--0------|
B-3--5-----3--0-----3--5-----3--0------|
G-2--4-----2--2-----2--4-----2--1------|
E-0--0--4--0--0--7--0--0--4--0--0------|
B-3--0--2--3--0--5--3--0--2--3--0------|
E----0--2-----4--5-----0--2-----0------|

Then play the intro riff twice and outro with the chorus.

And there it is. I, of course, didn't take the time to repeat each chord on this tab 
you strum it, I only did that on certain parts to avoid
 confusion. Good luck with it cuz I think this is pretty darned close....
Tap to rate this tab
# A B C D E F G H I J K L M N O P Q R S T U V W X Y Z