Song name
# A B C D E F G H I J K L M N O P Q R S T U V W X Y Z

Hoobastank - We Are One tab

I just write the chords, you will have to strum it up!Don't be afraid, it's quite easy! 
sorry, that's all that I have for now, I'll try to enhance it. I'm so sorry that UG 
respect how I alignated lyrics and chords....

Intro, Verse

-2-1-----------|
-3-1-----------|
-2-3-0-3-2-3-0-|
---3-----------|
---1-----------|
---1-----------|

Chorus

 We are     One   We are Everyone      I Promise you         I'll never let go
-5------5---------5----------3------------3------3-5-|
-5------7---------8----------5------------5-6-5--5-5-|
-7------7---------7----------5------------5------5-7-|
-7------7---------5----------3------------3------3-7-|
-5------5---------5----------3------------3------3-5-|
-5------5---------5----------3------------3------3-5-|
  We are     One   We are Everyone      I Promise you         I'll never let go
-5------5---------8----------3------------3------3-5-|
-5------7--------11----------5------------5-6-5--5-5-|
-7------7--------10----------5------------5------5-7-|
-7------7---------8----------3------------3------3-7-|
-5------5---------8----------3------------3------3-5-|
-5------5---------8----------3------------3------3-5-|

Hoobastank Forever!!!
And don't forget to Donate to Ha´ti
Tap to rate this tab
# A B C D E F G H I J K L M N O P Q R S T U V W X Y Z