Song name
# A B C D E F G H I J K L M N O P Q R S T U V W X Y Z

Hoobastank - Up And Gone tab

Intro (BASS PART)

e|------------------------------------------|
B|------------------------------------------|
G|------------------------------------------|
D|-----------4---------------6--------------| X2
A|-------4-4---4-4-4-7-4-4-4---4-4-4--------|
D|---4-4------------------------------------|

e|------------------------------------------------------------|
B|------------------------------------------------------------|
G|------------------------------------------------------------|
D|-------2--------------------------0-0-------------5---------|
A|-----2---2-2-2-5-2-2-2-2------0-0-----0-0-----5-5---5-5-----|
D|---2----------------------0-0-------------5-5---------------|

(BASS CONTINUES)

"Staring at the white above...)
e|------------------------------------------|
B|------------------------------------------|
G|------------------------------------------|
D|---4-4------------------------------------| 
A|---4-4------------------------------------|
D|---4-4------------------------------------|

"WHERE'D I GO WRONG!"

e|------------------------------------------|
B|---------------------------55-------------|
G|---------------------------44-------------|
D|---4-4-4-2-4---4-4-4-2-4---22-------------| X2
A|---4-4-4-2-4---4-4-4-2-4----2-------------|
D|---4-4-4-2-4---4-4-4-2-4------------------|

e|------------------------------------------------------|
B|------------------------------------------------------|
G|------------------------------------------------------|
D|---2-2-2-2-2---2-2-2-2-2-xxxxxx---5-5-5-5-5-8-8-8-8-8-| 
A|---2-2-2-2-2---2-2-2-2-2-xxxxxx---5-5-5-5-5-8-8-8-8-8-|
D|---2-2-2-2-2---2-2-2-2-2-000000---5-5-5-5-5-8-8-8-8-8-|

Verse
(IN BETWEEN BASS PARTS)
e|------------------------------------------|
B|-------5-----------8----------------------|
G|------4--4--------7-----------------------|
D|-----2-----2-----5------------------------| 
A|-------------2--5-------------------------|
D|------------------------------------------|

Chorus

e|------------------------------------------|
B|------------------------------------------|
G|--------------------------3h--------------|
D|---4-4-4-2-4---4-4-4-2-4------------------| X2
A|---4-4-4-2-4---4-4-4-2-4------------------|
D|---4-4-4-2-4---4-4-4-2-4------------------|

e|------------------------------------------|
B|------------------------------------------|
G|--------------------------3^--------------|
D|---4-4-4-2-4---4-4-4-2-4------------------| X2
A|---4-4-4-2-4---4-4-4-2-4------------------|
D|---4-4-4-2-4---4-4-4-2-4------------------|

e|------------------------------------------------------|
B|------------------------------------------------------|
G|------------------------------------------------------|
D|---2-2-2-2-2---2-2-2-2-2-xxxxxx---5-5-5-5-5-8-8-8-8-8-| 
A|---2-2-2-2-2---2-2-2-2-2-xxxxxx---5-5-5-5-5-8-8-8-8-8-|
D|---2-2-2-2-2---2-2-2-2-2-000000---5-5-5-5-5-8-8-8-8-8-|

After Chorus (LET RING)

e|------------------------------------------|
B|------------------------------------------|
G|------------------------------------------|
D|---4--------------------------------------| 
A|---4--------------------------------------|
D|---4--------------------------------------|

Verse

Second Chorus

After Second Chorus

(Bass)

"Staring at the white above..."
e|------------------------------------------|
B|------------------------------------------|
G|------------------------------------------|
D|---4-4------------------------------------| 
A|---4-4------------------------------------|
D|---4-4------------------------------------|

"I've found a chance I'm finally goin' to take
e|-----------------------------------------------------|
B|-----------------------------------------------------|
G|---------------------------------------------9-9-----|
D|---------------------------------------------9-9-----| 
A|---------------------------------------------7-7-----|
D|-----------------------------------------------------|

"I've learned from my mistakes...!

e|-----------------------------------------------------|
B|-----------------------------------------------------|
G|------------------------9-9--------------------------|
D|------------------------9-9--------------------------| 
A|------------------------7-7--------------------------|
D|-----------------------------------------------------|

"WHERE'D I GO WRONG!"

e|------------------------------------------|
B|---------------------------55-------------|
G|---------------------------44-------------|
D|---4-4-4-2-4---4-4-4-2-4---22-------------| X2
A|---4-4-4-2-4---4-4-4-2-4----2-------------|
D|---4-4-4-2-4---4-4-4-2-4------------------|

e|------------------------------------------------------|
B|------------------------------------------------------|
G|------------------------------------------------------|
D|---2-2-2-2-2---2-2-2-2-2-xxxxxx---5-5-5-5-5-8-8-8-8-8-| 
A|---2-2-2-2-2---2-2-2-2-2-xxxxxx---5-5-5-5-5-8-8-8-8-8-|
D|---2-2-2-2-2---2-2-2-2-2-000000---5-5-5-5-5-8-8-8-8-8-|

Last Chorus

Outro

"Where'd I go wrong!"

e|------------------------------------------|
B|------------------------------------------|
G|------------------------------------------|
D|---4-4-4-2-4------------------------------|   
A|---4-4-4-2-4------------------------------|
D|---4-4-4-2-4------------------------------|

Hope you liked it!


Tap to rate this tab
# A B C D E F G H I J K L M N O P Q R S T U V W X Y Z