Song name
# A B C D E F G H I J K L M N O P Q R S T U V W X Y Z

Hoobastank - The Pressure tab

Interpret: Hoobastank
Album: Fight or Flight(2012)
Song: The Pressure


Key: 
*: muted

This is my first tab. Please correct me if i made some mistakes.
Apart from that have fun and lets rock!



e|------------------------------------|-----------------------------------|
b|------------------------------------|-----------------------------------|
g|------9-9------9-9------------------|-----9-9-----9-9-10-10-9-9-5-5-4-4-|
D|----------10-10---10-10-9-9-7-7-9-9-|--------10-10----------------------|
A|--0-0-------------------------------|--0-0------------------------------|
E|------------------------------------|-----------------------------------|
   **********************************    **********************


e|------------------------------------|-----------------------------------|
b|------------------------------------|-----------------------------------|
g|------9-9------9-9------------------|-----9-9-----9-9-10-10-9-9-5-5-4-4-|
D|----------10-10---10-10-9-9-7-7-9-9-|--------10-10----------------------|
A|--0-0-------------------------------|--0-0------------------------------|
E|------------------------------------|-----------------------------------|


                                                         ^
e|------------------------------------|-----------------------------------|
b|------------------------------------|-----------------------------------|
g|------9-9------9-9------------------|-----9-9-----9-9-10----------------|
D|----------10-10---10-10-9-9-7-7-9-9-|--------10-10----------------------|
A|--0-0-------------------------------|--0-0------------------------------|
E|------------------------------------|-----------------------------------|




made by dutchgerman
Tap to rate this tab
# A B C D E F G H I J K L M N O P Q R S T U V W X Y Z