Song name
# A B C D E F G H I J K L M N O P Q R S T U V W X Y Z

Hoobastank - This Is Gonna Hurt tab

--------------------------------------------------------------
                 HOOBASTANK - This Is Gonna Hurt
--------------------------------------------------------------

Album: Fight or Flight
Year: 2012

--------------------------------------------------------------
NOTE:
***Some parts of this guitar tab may not be 100%, but it should 
be enough for you to get the idea of the song, and for you to 
build upon it.
--------------------------------------------------------------
Tunning: Half Step Down/ Drop D

INTRO:

d#|-------------------------------------------------------|
A#|-------------------------------------------------------|
F#|-------------------------------------------------------|
C#|-0-3-4-0---------0-3-4-0-xx-xx--0-3-4-0----------------|
G#|-0-3-4-0---------0-3-4-0-xx-xx--0-3-4-0----3-5-5-3-5\1-|
C#|-0-3-4-0---------0-3-4-0-xx-xx--0-3-4-0--5-------------|


                                     
d#|-------------------------------------------------------|
A#|-------------------------------------------------------|
F#|----------------------------------10--9----------------|
C#|-0-3-4-0---8-88-7-77---0-3-4-0----x---x---0-3-4-0------|
G#|-0-3-4-0---8-88-7-77---0-3-4-0----8---7---0-3-4-0------|
C#|-0-3-4-0---8-88-7-77---0-3-4-0------------0-3-4-0------|

d#|-------------------------------------------------------|
A#|-------------------------------------------------------|
F#|-10--9--------------10--10-----------------------------|
C#|-x---x---0-3-4-0----x---x---0-3-4-0--8-88-7-77-55555555|
G#|-8---7---0-3-4-0----8---7---0-3-4-0--8-88-7-77-55555555|
C#|---------0-3-4-0------------0-3-4-0--8-88-7-77-55555555|

VERSE:

d#|---------------------------------------------------------|
A#|---------------------------------------------------------|
F#|---------------------------------------------------------|
C#|-0-3-4-0-----0-3-4-0-----0-3-4-0-----0-8-88-7-77-55555555|
G#|-0-3-4-0-----0-3-4-0-----0-3-4-0-----0-8-88-7-77-55555555|
C#|-0-3-4-0-----0-3-4-0-----0-3-4-0-----0-8-88-7-77-55555555|

PRE CHORUS:

d#|---------------------------------------------------------|
A#|---------------------------------------------------------|
F#|-----------10---9-------------10---12-------------14---13|
C#|-0-3-4-0---x----x---0-3-4-0---x----x----0-3-4-0---x----x-|
G#|-0-3-4-0---8----7---0-3-4-0---8----10---0-3-4-0---12---11|
C#|-0-3-4-0------------0-3-4-0-------------0-3-4-0----------|

d#|-----------------------------|
A#|-----------------------------|
F#|-----------------------------|
C#|-0-8-88-7-77--55555555-------|
G#|-0-8-88-7-77--55555555-------|
C#|-0-8-88-7-77--55555555--0h3h5|


CHORUS:

Repeat 4 time for first bar then play second bar.
d#|---------------------|-------------------------------------|
A#|---------------------|------------------3-5----------------|
F#|---------------------|--------------3-5--------------------|
C#|---------------------|----------3-5------------------------| x4
G#|--5-5-35-35-53-0-3-5-|------3-5----------------------------|
C#|---------------------|-------------------------------------|


VERSE 2: 
(The same chords except for when this line is sung)

"I could get this off my chest"
d#|------------------------------------|
A#|---------------3~~~----5~~~---------|
F#|-----------5-7-----5-7--------------|
C#|-------3-5--------------------------|
G#|------------------------------------|
C#|--10\4------------------------------|

PRE CHORUS:
(The same chords except for when this line is sung)

"Its time to kiss it good bye!"
d#|------------------------------------|
A#|------------------------------------|
F#|------------------------------------|
C#|-------------3-5-3-----3-5/7~~~~----|
G#|---------3-5-------5-3--------------|
C#|--1/3--5----------------------------|

CHORUS: 

Repeat 4 time for first bar then play second bar.
d#|---------------------|-------------------------------------|
A#|---------------------|------------------3-5----------------|
F#|---------------------|--------------3-5--------------------|
C#|---------------------|----------3-5------------------------| x4
G#|--5-5-35-35-53-0-3-5-|------3-5----------------------------|
C#|---------------------|-------------------------------------|

POST CHORUS:
d#|-------------------------------|
A#|-------------------------------|
F#|-10---9----10---12----14----13-|
C#|-x----x----x----x-----x-----x--|
G#|-8----7----8----10----12----11-|
C#|-------------------------------|

BRIDGE:

d#|---------------------------------------------------|
A#|---------------------------------------------------|
F#|--3333--3333--3333--3333-----9999--9999--9999--9999|
C#|--3333--3333--3333--3333-----9999--9999--9999--9999|
G#|--1111--1111--1111--1111-----7777--7777--7777--7777|
C#|---------------------------------------------------|


d#|---------------------|
A#|---------------------|
F#|---------------------|
C#|---------------------|
G#|--5-5-35-35-53-0-3-5-|
C#|---------------------|

d#|-------------------------|
A#|-------------------------|
F#|-------------------------|
C#|--3-------7------5-------|
G#|--3-------7------5-------|
C#|--3-------7------5-------|


OUTRO

(Let Ring)
d#|-------------------------|
A#|-------------------------|
F#|-------------------------|
C#|-------------------------|
G#|--5--3-3--5-3-5-53-0-3-5-|
C#|-------------------------|

d#|-------------------------|
A#|-------------------------|
F#|-------------------------|
C#|--3-------7------5-------|
G#|--3-------7------5-------|
C#|--3-------7------5-------|


------------------------------------------
h - Hammer on
~ - Vibrato
/\- Slide
------------------------------------------
NOTE: Use tremolo bar on octave chords if
your guitar has one. That's how its played
on the record.
------------------------------------------
Tap to rate this tab
 
# A B C D E F G H I J K L M N O P Q R S T U V W X Y Z