Song name
# A B C D E F G H I J K L M N O P Q R S T U V W X Y Z

Hoobastank - Waiting tab

Hoobastank - Waiting
Guitar Tab - Version 2
Tuning - Drop D
By Alex Tomlinson

My first tab was awful so I've improved it.
This tab is probably around 95% accurate.
Hope you enjoy it. Make sure to comment and rate! 

Intro/Verse.

e|----------------------------------------------------|
B|----------------------------------------------------|
G|-7-7-x-6--------------------6------------x-7-7-x-9--|
D|-7-7-x-7--7-7-7-7-5-5-5-5-x-7--7-7-7-7-7-x-7-7-x-7--|
A|-0-0-x-0--0-0-0-0-0-0-0-0-x-0--0-0-0-0-0-x-0-0-x-0--|
D|----------------------------------------------------|
           (pm-------------)    (pm-------)
 
Cont.

e|---------------------------------------------------------------------|
B|------------------------------------------1---------0-0--------------|
G|-------------------6------------x-7-7-----0---------0-0--------------|
D|-7-7-7-7-5-5-5-5-x-7--7-7-7-7-7-x-7-7-x------------------------------|
A|-0-0-0-0-0-0-0-0-x-0--0-0-0-0-0-x-0-0-x-3---3-3-3-3-----3-0-0-0-0-0--|
D|----------------------------------------3---3-3-3-3-----3-0-0-0-0-0--|
   (PM-------------)   (PM--------)    (PM-) (PM-----)   (PM---------)

Cont.

e|------------------------------------------|
B|------------------------------------------|
G|-------------------------6---------x-7-7--|
D|-5-5-x-7-7-7-7-5-5-5-5-x-7-7-7-7-7-x-7-7--|
A|-5-5-x-0-0-0-0-0-0-0-0-x-0-0-0-0-0-x-0-0--|
D|------------------------------------------|
  (PM---------------------) (PM------)

Chorus. 1

e|---------------------3-------3------------------------------------|
B|-----1-------1-------3-------3------------------------------------|
G|-----0-------0-----------------------6-------6-------6-----6---6--|
D|-------------------------------x-7-7-7-x-7-7-7-x-7-7-7-x-7-7-x-7--|
A|-3-3---x-3-3---x-5-5---x-5-5---x-0-0-0-x-0-0-0-x-0-0-0-x-0-0-x-0--|
D|-3-3---x-3-3---x-5-5---x-5-5--------------------------------------|
  (PM-) (PM---) (PM---) (PM---) (PM---) (PM---) (PM---) (PM-)  

e|---------------------3-------3--------------------------------------|
B|-----1-------1-------3-------3--------------------------------------|
G|-----0-------0-----------------------6-------6-------6---------7-7--|
D|-------------------------------x-7-7-7-x-7-7-7-x-7-7-7-x-7-7-7-7-7--|
A|-3-3---x-3-3---x-5-5---x-5-5---x-0-0-0-x-0-0-0-x-0-0-0-x-0-0-0-0-0--|
D|-3-3---x-3-3---x-5-5---x-5-5----------------------------------------|
  (PM-) (PM---) (PM---) (PM---) (PM---) (PM---) (PM---) (PM-----)  


verse.

Chorus. 2

e|-----------------------------------|
B|-----------2----------------2------|
G|-----------2----------------2------|
D|-3----5----2-x16--3----5----2-x16--|
A|-3-x8-5-x8-0------3-x8-5-x8-0------|
D|-3----5-----------3----5-----------|

Chorus. 2 Cont.

e|-------------------------------------------|
B|-----------2-------------------2-----------|
G|-----------2-------------------2-----2-----|
D|-3----5----2-x8-5----3----5----2-x8--2-x8--|
A|-3-x8-5-x8-0----5-x8-3-x8-5-x8-0-----0-----|
D|-3----5---------5----3----5----------------|
                                      (PM)

Bridge.

e|------------------------------------|
B|------------------------------------|
G|-------------------6-6-6---7-7-7----|
D|---7-7-7---7-7-7---7-7-7-0-7-7-7-x2-|
A|-0-7-7-7-0-5-5-5-0-0-0-0-0-0-0-0----|
D|-0-7-7-7-0-5-5-5-0------------------|


Bridge. Cont.

e|------------------------------------------------------------------|
B|------------------------------------------------------------------|
G|---5-5-5---4-4-4-----------------------------------6-6-6---7-7-7--|
D|---3-3-3---3-3-3---0-0-0---7-7-7---7-7-7---5-5-5---7-7-7-0-7-7-7--|
A|-0-3-3-3-0-3-3-3-0-0-0-0-0-5-5-5-0-7-7-7-0-5-5-5-0-0-0-0-0-0-0-0--|
D|-0-3-3-3-0-3-3-3-0-0-0-0-0-5-5-5-0-7-7-7-0-5-5-5-0----------------|

Play entire Bridge again.

Chorus.

The last chorus extends a bit but it's not hard to figure out. 

The outro is basically the first part of the intro.
Tap to rate this tab
# A B C D E F G H I J K L M N O P Q R S T U V W X Y Z