Song name
# A B C D E F G H I J K L M N O P Q R S T U V W X Y Z

Hoobastank - Hello Again tab

Hoobastank - Waiting
Guitar Tab - Version 2
Tuning - Drop D
By Alex Tomlinson

Intro 1/Verse 1 (Light distortion with phaser)

e|-10--10-x-x-10-10-10-x-x-10-x-x-10---10-x-x-10-10-10-x-x-10-x-|
B|--x---x-x-x--x--x--x-x-x--x-x-x--x----x-x-x--x--x--x-x-x--x-x-|
G|--9---9-x-x--9/11-11-x-x-11-x-x--9----9-x-x--9/11-11-x-x-11-x-|
D|--0---0-x-x--0--0--0-x-x--0-x-x--0----0-x-x--0--0--0-x-x--0-x-|
A|--------------------------------------------------------------|
D|--------------------------------------------------------------|

E|-10-10-x-x-10-10-x-x-10-x-x-10-10-x-x-10-10-x-x-10-x-x--------|
B|--8--8-x-x--8--8-x-x--8-x-x--x--x-x-x--x--x-x-x--8-x-x--------|
G|--x--x-x-x--x--x-x-x--x-x-x-10-10-x-x--9--9-x-x--x-x-x--------|
D|--0--0-x-x--0--0-x-x--0-x-x--0--0-x-x--0--0-x-x--x-x-x--------|
A|--------------------------------------------------------------|
D|--------------------------------------------------------------|

Intro 2 (Distortion)

E|-----x-x--------x-x-----x-x--x-x------------x-x-----x-x-------|
B|-----x-x--------x-x-----x-x--x-x------------x-x-----x-x-------|
G|-9-9-x-x---9-11-x-x--11-x-x--9-9-x-x---9-11-x-x--11-x-x-------|
D|-x-x-x-x---x-x--x-x--x--x-x--x-x-x-x---x-x--x-x--x--x-x-------|
A|-7-7-x-x---7/9--x-x--9--x-x--7-7-x-x---7/9--x-x--9--x-x-------|
D|-----x-x---0~---x-x-----x-x------x-x---0~---x-x-----x-x-------|

                                                        (x2)

E|-------x-x-------x-x-----x-x--------------x---x-x-------------|
B|-------x-x-------x-x-----x-x--------------x---x-x-------------|
G|-10-10-x-x-10-10-x-x-10--x-x--5-5-x-x-7-7-x-7-x-x-------------|
D|--8--8-x-x--8--8-x-x--8--x-x--3-3-x-x-5-5-x-5-x-x-------------|
A|--8--8-x-x--8--8-x-x--8--x-x--3-3-x-x-3-3-x-3-x-x-------------|
D|--8--8-x-x--8--8-x-x--8--x-x--3-3-x-x-----x---x-x-------------|

Verse 1

Verse 1 cont. Distortion (Stronger today...)

E|------------x-x-----------------------------------------------|
B|------------x-x-----------------------------------------------|
G|------------x-x-----------------------------------------------|
D|--------3-3-x-x-5-5555555-------------------------------------|
A|--------3-3-x-x-3-3333333-------------------------------------|
D|--12/0--3-3-x-x-2-2222222-------------------------------------|
                   (PM-----)

Chorus

E|------------------x---------------------x-x-x-x---------------|
B|------------------x---------------------x-x-x-x---------------|
G|--5---5---5---5---x-----5---5---5---5---x-x-x-x---------------|
D|--5-0-5-0-5-0-5-0-x-----5-0-5-0-5-0-5-0-x-x-x-x---------------|
A|--3-0-3-0-3-0-3-0-x-----3-0-3-0-3-0-3-0-x-x-x-x---------------|
E|----0---0---0---0-x-------0---0---0---0-x-x-x-x---------------|

                                                        (x2)

E|------------------------------------------x-x-----x-x---x-x---|
B|------------------------------------------x-x-----x-x---x-x---|
G|-3-3-3/5-5-5/7-7-7/10-10-10-10-10-----7-7-x-x-7-7-x-x-7-x-x---|
D|-x-x-x-x-x-x-x-x-x--x--x--x--x--x-0-0-5-5-x-x-5-5-x-x-5-x-x---|
A|-1-1-1/3-3-3/5-5-5/-8--8--8--8--8-0-0-5-5-x-x-5-5-x-x-5-x-x---|
E|--------------------------------------5-5-x-x-5-5-x-x-5-x-x---|

Intro 2

Verse 2 X4 (Clean with phaser)

E|-10-10-10-10-x-x-10-10-10-10-x-x-10-10-x-x--------------------|
B|--------------------------------------------------------------|
G|-----------------------------------------------(x4)-----------|
D|--------------------------------------------------------------|
A|--------------------------------------------------------------|
E|--------------------------------------------------------------|

Intro 1
Intro 1 cont.
Chorus

Bridge 1

E|--------------------x-x-------x-x-----x-x---x-x---------------|
B|--------------------x-x-------x-x-----x-x---x-x---------------|
G|-7\-----------------x-x---7-7-x-x-7-7-x-x-7-x-x--(x2)---------|
D|-x\-----------------x-x---7-7-x-x-7-7-x-x-7-x-x---------------|
A|-5\-<-<-<-----------x-x---5-5-x-x-5-5-x-x-5-x-x---------------|
E|-(delay effect)-----x-x---0-0-x-x-0-0-x-x-0-x-x---------------|

E|-------x-x--------x-x-----x-x-----x-x-----x-x---x-x-----------|
B|-------x-x--------x-x-----x-x-----x-x-----x-x---x-x-----------|
G|-10-10-x-x--10-10-x-x-10--x-x-5-5-x-x-7-7-x-x-7-x-x-----------|
D|--8--8-x-x---8--8-x-x--8--x-x-3-3-x-x-5-5-x-x-5-x-x-----------|
A|--8--8-x-x---8--8-x-x--8--x-x-3-3-x-x-3-3-x-x-3-x-x-----------|
E|--8--8-x-x---8--8-x-x--8--x-x-3-3-x-x-----x-x---x-x-----------|

E|-------x-x-------x-x---x-x---x-x-------------------|
B|-------x-x-------x-x---x-x---x-x-------------------|
G|---7-7-x-x-7-7-x-x-7-7-x-x-7-x-x--(x2)-------------|
D|---7-7-x-x-7-7-x-x-7-7-x-x-7-x-x-------------------|
A|---5-5-x-x-5-5-x-x-5-5-x-x-5-x-x-------------------|
E|---0-0-x-x-0-0-x-x-0-0-x-x-0-x-x-------------------|

E|-------x-x--------x-x-----x-x-----x-x--------------|
B|-------x-x--------x-x-----x-x-----x-x--------------|
G|-10-10-x-x--10-10-x-x-10--x-x-5-5-x-x--------------|
D|--8--8-x-x---8--8-x-x--8--x-x-3-3-x-x-5-5555555----|
A|--8--8-x-x---8--8-x-x--8--x-x-3-3-x-x-3-3333333----|
E|--8--8-x-x---8--8-x-x--8--x-x-3-3-x-x-2-2222222----|
                                         (PM-----)
Chorus

Last Chorus

E|---------------------------------------------------|
B|---------------------------------------------------|
G|--5---5---5---5---11-----5---5---5---5---11--------|
D|--5-0-5-0-5-0-5-0--x-----5-0-5-0-5-0-5-0--x--------|
A|--3-0-3-0-3-0-3-0--9-----3-0-3-0-3-0-3-0--9--------|
E|----0---0---0---0----------0---0---0---0-----------|

E|-------x-x-------x-x----x-x-----x-x-----x-x---x-x--|
B|-------x-x-------x-x----x-x-----x-x-----x-x---x-x--|
G|-10-10-x-x-10-10-x-x-10-x-x-7-7-x-x-7-7-x-x-7-x-x--|
D|--8--8-x-x--8--8-x-x--8-x-x-5-5-x-x-5-5-x-x-5-x-x--|
A|--8--8-x-x--8--8-x-x--8-x-x-5-5-x-x-5-5-x-x-5-x-x--|
E|--8--8-x-x--8--8-x-x--8-x-x-5-5-x-x-5-5-x-x-5-x-x--|

E|---------------------------------------------------|
B|---------------------------------------------------|
G|--5---5---5---5---11-----5---5---5---5---11--------|
D|--5-0-5-0-5-0-5-0--x-----5-0-5-0-5-0-5-0--x--------|
A|--3-0-3-0-3-0-3-0--9-----3-0-3-0-3-0-3-0--9--------|
E|----0---0---0---0----------0---0---0---0-----------|

E|-------x-x-------x-x----x-x----|
B|-------x-x-------x-x----x-x----|
G|-10-10-x-x-10-10-x-x-10-x-x-7--|
D|--8--8-x-x--8--8-x-x--8-x-x-5--|
A|--8--8-x-x--8--8-x-x--8-x-x-5--|
E|--8--8-x-x--8--8-x-x--8-x-x-5--|
Tap to rate this tab
# A B C D E F G H I J K L M N O P Q R S T U V W X Y Z