Guitaretab - guitar tabs
Song name
# A B C D E F G H I J K L M N O P Q R S T U V W X Y Z

Hoobastank - Same Direction tab

intro: guitar 1
e----0---0----0---0----0---0----0---02---333---333--3---------------------->
B---3-0-3-0--3-0-3-0--3-0-3-0--3-0-3-----333---333--3---777---777--7---888->
G----------------------------------------------------------------------000->
D-------------------------------------222---222---22-000---000---00-777---->
A-------------------------------------222---222---22-000---000---00-777---->
D-------------------------------------222---222---22-000---000---00-777---->
|                                                                          |
|intro: guitar 2                                                           |
e----------------------------------------333---333--3---------------------->
B----------------------------------------333---333--3------------------888->
G----------------------------------------------------------------------000->
D-222222222000000000-------------00000222---222---22-000444000444004777---->
A-------------------4444444443333-----222---222---22-000---000---00-777---->
D-------------------------------------222---222---22-000---000---00-777---->
                                    HEY!

intro: guitar 1 (r= 10th fret, a= 12th fret)
/e---------------------------->|\
|B----888--8---------777--7--->|
|G----000--0---999------------>|
|D-777---77-rrr---000---00---->|
|A-777---77-rrr---000---00---->|
|D-777---77-rrr---000---00---->|
|                            |
|intro: guitar 2             |
|e---------------------------->|
|B----888--8------------------>|
|G----000--0------------------>|
|D-777---77-rrr---000---00---->|
|A-777---77-rrr777000999009--->|
\D-777---77-rrr---000---00---->|/

verse 1: guitar 1
e----0---0----0---0----0---0----0---02---0---0----0---0----0---0----0---02->
B---3-0-3-0--3-0-3-0--3-0-3-0--3-0-3----3-0-3-0--3-0-3-0--3-0-3-0--3-0-3--->
G-------------------------------------------------------------------------->
D-------------------------------------------------------------------------->
A-------------------------------------------------------------------------->
D-------------------------------------------------------------------------->
|                                                                          |
|verse 1: guitar 2                                                         |
e-------------------------------------------------------------------------->
B-------------------------------------------------------------------------->
G-------------------------------------------------------------------------->
D-222222222000000000-------------00000222222222000000000-------------00000->
A-------------------4444444443333-----------------------4444444443333------>
D-------------------------------------------------------------------------->
Whenever I step outside, somebody claims to see the light It seems to me that
all of us lost our patience 'cause everyone thinks they're right, And nobody
thinks that there might Be more than one road to our final destination

chorus: guitar 1
e----333---333--3--------------------------------------------->
B----333---333--3---777---777--7------------------------------>
G------------------------------------------------------------->
D-222---222---22-000---000---00-77777777777777rrrrrr00000550--> repeat
A-222---222---22-000---000---00-77777777777777rrrrrr00000550-->
D-222---222---22-000---000---00-77777777777777rrrrrr00000550-->

chorus: guitar 2
e----333---333--3--------------------------------------------->
B----333---333--3--------------------------------------------->
G------------------------------------------------------------->
D-222---222---22-00044400044400477777777777777rrrrrr00000550--> repeat
A-222---222---22-000---000---00-77777777777777rrrrrr00000550-->
D-222---222---22-000---000---00-77777777777777rrrrrr00000550-->
But Iím not ever going to know if Iím right or wrong 'cause we're all
going in the same directionAnd Iím not sure which way to go because
all along We've been going in the same direction
[ Tab from: http://www.guitaretab.com/h/hoobastank/46888.html ]
verse 2: guitar 1
e----0---0----0---0----0---0----0---02---0---0----0---0----0---0----0---02->
B---3-0-3-0--3-0-3-0--3-0-3-0--3-0-3----3-0-3-0--3-0-3-0--3-0-3-0--3-0-3--->
G-------------------------------------------------------------------------->
D-------------------------------------------------------------------------->
A-------------------------------------------------------------------------->
D-------------------------------------------------------------------------->
|                                                                          |
|verse 2: guitar 2                                                         |
e-------------------------------------------------------------------------->
B-------------------------------------------------------------------------->
G-------------------------------------------------------------------------->
D-222222222000000000-------------00000222222222000000000-------------00000->
A-------------------4444444443333-----------------------4444444443333------>
D-------------------------------------------------------------------------->
I'm tired of playing games, of looking for someone else to blame For all the
holes in that are clearly showing For something to fill the space, was all of
the time I spent a 'cause so many choices point the same way I was going

  REAPEAT CHORUS

bridge: guitars 1 and 2
e----------------333---333--3---333---333--3---333---333--3---333---333--3->
B----------------333---333--3---333---333--3---333---333--3---333---333--3->
G-------------------------------------------------------------------------->
D-rrrrr000000-222---222---22-222---222---22-222---222---22-222---222---22-->
A-rrrrr000000-222---222---22-222---222---22-222---222---22-222---222---22-->
D-rrrrr000000-222---222---22-222---222---22-222---222---22-222---222---22-->
Going in the same direction same direction same direction

bridge: guitar 1 (repeat till ď2Ē)              2
e---------------------------------------------->---------------->
B--------------------------------555555-777888->-5555555-777888->
G-------------------------666666-555555-777777->-5555555-777777->
D---------------------------------------------->---------------->
A---------------------------------------------->---------------->
D---------------------------------------------->---------------->

bridge: guitar 2 (repeat till ď2Ē)              2
e---------------------------------------------->---------------->
B---------------------------------------------->---------------->
G---------------------------------------------->---------------->
D-22022-22022-00200-00200-777777-rrrrrr-000550->-rrrrrrr-000550->
A-22022-22022-00200-00200-777777-rrrrrr-000550->-rrrrrrr-000550->
D-22022-22022-00200-00200-777777-rrrrrr-000550->-rrrrrrr-000550->
So why does there only have to be one correct philosophy?  I don't want to
go and follow just to end up like one of them And why are you always telling
me what you want me to I'd like to think that I can go my own way and meet
you in the end

chorus 2: guitar 1
/e----0---0----0---0---------------------------------->|\
|B---3-0-3-0--3-0-3-0--------------------------------->|
|G----------------------000---000--0------------------>|
|D-------------------777---777---77-rrrrrr00000550---->|
|A-------------------777---777---77-rrrrrr00000550---->|
|D-------------------777---777---77-rrrrrr00000550---->|
|                                                    |
|chorus 2: guitar 2                                  |
|e---------------------------------------------------->|
|B---------------------------------------------------->|
|G----------------------000---000--0------------------>|
|D-222222222000000000777---777---77-rrrrrr00000550---->|
|A-------------------777---777---77-rrrrrr00000550---->|
\D-------------------777---777---77-rrrrrr00000550---->|/
But Iím not ever going to know if Iím right or wrong 'cause we're all
going in the same direction

chorus 2: guitar 1
e----333---333--3---------------------------------------------------------->
B----333---333--3---777---777--7------------------------------------------->
G-------------------------------------------------------------------------->
D-222---222---22-000---000---00-77777777777rrrrr000000rrrrr00000rrrrr00000->
A-222---222---22-000---000---00-77777777777rrrrr000000rrrrr00000rrrrr00000->
D-222---222---22-000---000---00-77777777777rrrrr000000rrrrr00000rrrrr00000->

chorus 2: guitar 2
e----333---333--3---------------------------------------------------------->
B----333---333--3---------------------------------------------------------->
G-------------------------------------------------------------------------->
D-222---222---22-00044400044400477777777777rrrrr000000rrrrr00000rrrrr00000->
A-222---222---22-000---000---00-77777777777rrrrr000000rrrrr00000rrrrr00000->
D-222---222---22-000---000---00-77777777777rrrrr000000rrrrr00000rrrrr00000->
And Iím not sure which way to go because all along We've been going in the same
directiongoing in the same direction going in the same direction

guitars 1 and 2
e----333---333--3---333---333--3---333---333--3---333---333--3\->
B----333---333--3---333---333--3---333---333--3---333---333--3\->
G--------------------------------------------------------------->
D-222---222---22-222---222---22-222---222---22-222---222---22--->
A-222---222---22-222---222---22-222---222---22-222---222---22--->
D-222---222---22-222---222---22-222---222---22-222---222---22--->
same direction same direction
Related for Same Direction tab