Song name
# A B C D E F G H I J K L M N O P Q R S T U V W X Y Z

Hoobastank - What Happened To Us tab

Intro:   guitar 1
e|-----------------------------------------------------------------------|
B|-----------------------------------------------------------------------|
G|-----------------------------------------------------------------------|
D|------10----10----10----10------10----10----10----10-------------------| 2x
A|--------8--8--8--8--8--8--8\7--7--7--7--7--7--7--7--7/8----------------|
D|-0-0-------------------------------------------------------------------|
        
  Guitar 2 starts playing	
e|-----------------------------------------------------------------------|
B|-----------------------------------------------------------------------|
G|-----------------------------------------------------------------------|
D|----------10------------10--------------10---------------10------------| 1x
A|---x8----8-------x8----8--------x7----7---------x7-----7---------------|
D|-x8---x8-------x8---x8-------x10--x10-------x10---x10------------------|

	 guitar 2
e|-----------------------------------------------------------------|
B|-----------------------------------------------------------------|
G|-----------------------------------------------------------------|
D|-----------------------------------------------------------------|
A|-----------------------------------------------------------------|
D|8~~~~~~~~~~~~~~~~~~~~~~~~~~10~~~~~~~~~~~~~~~~~~~~~~~~~~~~~~~~~~~~|
	
  Guitar 2 stops playing
e|-----------------------------------------------------------------------|
B|-----------------------------------------------------------------------|
G|-----------------------------------------------------------------------|
D|------10----10----10----10------10----10----10----10-------------------| 1x
A|--------8--8--8--8--8--8--8\7--7--7--7--7--7--7--7--7/8----------------|
D|-0-0-------------------------------------------------------------------|


	Verse:  Similar to intro, but acoustic
e|-----------------------------------------------------------------------|
B|-----------------------------------------------------------------------|
G|--------------------------------------------------------0~~------------|
D|------10----10----10----10----10----10------10----10----0~~------------|
A|--------8--8--8--8--8--8--8--8--8--8--8--8/7--7--7--7---0~~------------|
D|-0-0-------------------------------------------------------------------|


   Chorus
e|----------------------------------------------------------------------|
B|----------------------------------------------------------------------|
G|----------------------------------------------------------------------|
D|0~00-3\2--0--3\2---0~00-3\2-0--3\2------------------------------------| 2x
A|0~00-3\2--0--3\2---0~00-3\2-0--3\2------------------------------------|
D|0~00-3\2--0--3\2---0~00-3\2-0--3\2------------------------------------|
            x                 x            
e|---------------------------------------------------|
B|---------------------------------------------------|
G|---------------------------------------------------|
D|--5555555555555555-88888888-3~-10~-----------------|
A|--5555555555555555-88888888-3~-10~-----------------|
D|--5555555555555555-88888888-3~-10~-----------------|

e|----------------------------------------------------------------------|
B|----------------------------------------------------------------------|
G|----------------------------------------------------------------------|
D|0~00-3\2--0--3\2---0~00-3\2-0--3\2------------------------------------| 2x
A|0~00-3\2--0--3\2---0~00-3\2-0--3\2------------------------------------|
D|0~00-3\2--0--3\2---0~00-3\2-0--3\2------------------------------------|
            x                 x
  
e|---------------------------------------------------|
B|---------------------------------------------------|
G|---------------------------------------------------|
D|--5555555555555555-88888888-3~-10~-----------------|
A|--5555555555555555-88888888-3~-10~-----------------|
D|--5555555555555555-88888888-3~-10~-----------------|



Outro:
e|--3-3-3-3-3-3-3-3-3-3-3-3-3-3-3-3-5-5-5-5-5-5-5-5-5-5-5-5-5-5-5-5--|
B|-------------------------------------------------------------------|
G|-------------------------------------------------------------------|
D|-------------------------------------------------------------------|
A|-------------------------------------------------------------------|
D|-------------------------------------------------------------------|

e|-------------------------------------------------------------------|
B|--3-3-3-3-3-3-3-3-3-3-3-3-3-3-3-3-5-5-5-5-5-5-5-5-5-5-5-5-5-5-5-5--|
G|-------------------------------------------------------------------|
D|-------------------------------------------------------------------|
A|-------------------------------------------------------------------|
D|-------------------------------------------------------------------|


| /  slide up
| \  slide down
| h  hammer-on
| p  pull-off
| ~  vibrato
| +  harmonic
| x  Mute note
===============================================================================
Tap to rate this tab
# A B C D E F G H I J K L M N O P Q R S T U V W X Y Z