Song name
# A B C D E F G H I J K L M N O P Q R S T U V W X Y Z

Hoobastank - Without A Fight tab

Artist: Hoobastank
Song: Without A fight
Album: Every Man For Himself
Tuning: Drop D

INTRO/PRE-CHORUS:
e|----------------------------------------|
B|----------------------------------------|
G|--------999999999-----99999-------------|
D|----0h2-999999999-0h2-99999-55-12121212-|
A|----0h2-777777777-0h2-77777-55-12121212-|
D|----0h2-----------0h2-------55-12121212-|

The part that goes:
"The clock is counting down..."
Goes like:
e|---------------------|
B|---------------------|
G|---------------------|
D|----4----5----4----5-|
A|----4----5----4----5-|
D|----4----5----4----5-|

CHORUS:
e|--------------------------------------------------|
B|--------------------------------------------------|
G|------------7-7777-777------------5-55-55-7-77-77-|
D|-2-2222-222-7-7777-777-7-7777-777-5-55-55-7-77-77-|
A|-2-2222-222-5-5555-555-7-7777-777-3-33-33-5-55-55-|
D|-2-2222-222------------7-7777-777-----------------|

SOLO:
e|--------------------------------|
B|--------------------------------|
G|--------------------------------|
D|-2-0-5-0-7-0-9-0-12-0-9-0-12/14-| (x3)
A|-2-0-5-0-7-0-9-0-12-0-9-0-12/14-|
D|-2-0-5-0-7-0-9-0-12-0-9-0-12/14-|

e|-----------|
B|-----------|
G|-77-x-66-x-|
D|-77-x-66-x-|
A|-55-x-44-x-|
D|-----------|

Do that two or three times. Then play:
e|---------------------|
B|---------------------|
G|-----------77-x-66-x-|
D|-2-222-222-77-x-66-x-| (x2)
A|-2-222-222-55-x-44-x-|
D|-2-222-222-----------|

And that's it.

Feel free to comment or rate.

-End
Tap to rate this tab
 
# A B C D E F G H I J K L M N O P Q R S T U V W X Y Z