Song name
# A B C D E F G H I J K L M N O P Q R S T U V W X Y Z

Hoobastank - Moving Forward tab

-----------------------------------------------------------------------------
			     Moving Forward - Hoobastank
-----------------------------------------------------------------------------

Tabbed by: Leo C

Ok, so this is my first tab. Just bought their newest album and i think this song rocks. 
that hard to play, so have a go.

NOTE: You can play these as power-chords if you want, but i prefer not to, as it gives a 
crisper sound.

Tuning: Standard

Intro: Synthesised voices over a kind of laser noise. no guitars until the last 'moving 
becomes slurred.

First Verse:

e|-x-----------x-----------x-----------x----------x------|
B|-3--(x 24)---x--(x 24)---3--(x 24)---x--(x 21)--x-(x 3)|
G|-2-----------3-----------2-----------3----------5------|
D|-0-----------0-----------0-----------0----------0------|
A|-x-----------x-----------x-----------x----------x------|
E|-x-----------x-----------x-----------x----------x------|

Bridge:

e|-x----------x----------x----------x----------|
B|-3--(x 6)---x--(x 6)---x--(x 6)---x--(x 6)---|
G|-2----------3----------5----------7----------|
D|-0----------0----------0----------0----------|
A|-x----------x----------x----------x----------|
E|-x----------x----------x----------x----------|

e|-x----------x----------x----------x----------|
B|-3--(x 6)---x--(x 6)---x--(x 6)---x--(x 12)--|
G|-2----------3----------5----------6----------|
D|-0----------0----------0----------0----------|
A|-x----------x----------x----------x----------|
E|-x----------x----------x----------x----------|

Chorus:

e|-x---------x---------x-----------|
B|-x--(x6)---x--(x6)---x--(x 12)---|
G|-3---------5---------7-----------|  x2
D|-0---------0---------0-----------|
A|-x---------x---------x-----------|
E|-x---------x---------x-----------|

e|-x---------x---------x----------x-----------x----------x-----------|
B|-x--(x6)---x--(x6)---x--(x 6)---x--(x 12)---x--(x 6)---x--(x 12)---|
G|-3---------5---------7----------3-----------5----------7-----------|
D|-0---------0---------0----------0-----------0----------0-----------|
A|-x---------x---------x----------x-----------x----------x-----------|
E|-x---------x---------x----------x-----------x----------x-----------|

Repeat chords from first verse

Repeat chords from bridge

Repeat chords from chorus

Break:

e|-x-----------x-----------x-----------|
B|-x--(x 24)---x--(x 12)---x--(x 12)---|
G|-6-----------7-----------9-----------|
D|-0-----------0-----------0-----------|
A|-x-----------x-----------x-----------|
E|-x-----------x-----------x-----------|

e|-x-----------x-----------|
B|-x--(x 12)---x--(x 12)---|  x2
G|-7----------10-----------|
D|-0-----------8-----------|
A|-x-----------x-----------|
E|-x-----------x-----------|

e|-x-----------x-----------|
B|-3--(x 12)---x--(x 12)---|
G|-2----------10-----------|
D|-0-----------8-----------|
A|-x-----------x-----------|
E|-x-----------x-----------|

Chorus 2:

e|-x----------x----------|
B|-3--(x 12)--x--(x 12)--| x2
G|-2----------3----------|
D|-0----------0----------|
A|-x----------x----------|
E|-x----------x----------|

Break 2:

e|-x-----------x-----------|
B|-x--(x 12)---x--(x 12)---|  x2
G|-7----------10-----------|
D|-0-----------8-----------|
A|-x-----------x-----------|
E|-x-----------x-----------|

Repeat Chorus 2

Repeat Break 2

Repat Chrous 2 x2

Outro:

e|-x-|
B|-3-|
G|-2-|
D|-0-|
A|-x-|
E|-x-|

Legend: x  Mute note
=============================================================================

I hope you find this tab helpful (I know i have). Keep rockin'.

PS: just gonna post a few of my fav bands: Nickelback, Good Charlotte, Creed, 
Puddle of Mudd, Linkin Park, POD, The Offspring, Sex Pistols, Feeder, Nirvana, Guns 'N' Roses, The 
Roses, Oasis, Travis, U2, The Beatles, etc.

If you want to offer corrections, please comment.

Hope you liked it(not bad for my first tab?)

Cheers
Tap to rate this tab
 
# A B C D E F G H I J K L M N O P Q R S T U V W X Y Z