Song name
# A B C D E F G H I J K L M N O P Q R S T U V W X Y Z

Hoobastank - Say The Same tab

Artist: Hoobastank
Song: Say The Same
Album: Every Man For Himself
Tuning: Standard

Intro
e|------------------------------------------------------------------|
B|---7h9---9h10-10h12--7h9---9------0---2---3---2---0---3---5---5---|
G|------------------------------------------------------------------|
D|------------------------------------------------------------------|
A|------------------------------------------------0---0---0---0---0-|
E|-0-----0-----0-----0-----0------3---3---3---3---------------------|

e|------------------------------------------------------------------|
B|---7h9---9h10-10h12--7h9---9------0---2---3---2---0---3---5---5---|
G|------------------------------------------------------------------|
D|------------------------------------------------------------------|
A|------------------------------------------------0---0---0---0---0-|
E|-0-----0-----0-----0-----0------3---3---3---3---------------------|

e|---------------------------------|
B|---0---3---5---3---0---5---7-----|
G|-------------------------------7-|
D|---------------------------------|
A|-3---3---3---3---3/5-5---5---5---|
E|---------------------------------|

Chorus - "So good-bye my friend..."
e|----------------------------------------------------|
B|-----------------------------5-5-5-5-55-------------|
G|-9-9-9-9-99------7-7-7-7-77--4-4-4-4-44--5-5-7-7-77-|
D|-9-9-9-9-99--5-5-7-7-7-7-77--2-2-2-2-22--5-5-7-7-77-|
A|-7-7-7-7-77--5-5-5-5-5-5-55--2-2-2-2-22--3-3-5-5-55-|
E|-------------3-3-------------0-0-0-0-00--3-3-5-5-55-|

e|------------------------------------------|
B|------------------------------------------|
G|-9-9-9-9-99------7-7-7-7-77----5-5-7-7-77-|
D|-9-9-9-9-99--5-5-7-7-7-7-77----5-5-7-7-77-|
A|-7-7-7-7-77--5-5-5-5-5-5-55----3-3-5-5-55-|
E|-------------3-3---------------3-3-5-5-55-|

Pre-chorus
e|------------------------------------------------------------|
B|---7h9---9h10-10h12--7h9---9---9---7h9---9h10-10h12--7h9----|
G|------------------------------------------------------------|
D|------------------------------------------------------------|
A|------------------------------------------------------------|
E|-0-----0-----0-----0-----0---0---0-----0-----0-----0--------|

e|------------------------------------3---3-3-5-5-5-55-|
B|------------------------------------3---3-3-5-5-5-55-|
G|--11/13--13/14--14/16---9/11-11-----x---x-x-x-x-x-xx-|
D|---X/X----X/X----X/X----X/X---X-----5---5-5-7-7-7-77-|
A|---9/11--11/12--12/14---7/9---9-----5---5-5-7-7-7-77-|
E|-0------0------0------0-----0------------------------|

e|------------------------------------3---3-3-5-5-5-55--------------|
B|------------------------------------3---3-3-5-5-5-55--------------|
G|--11/13--13/14--14/16---9/11--11----x---x-x-x-x-x-xx-5-5-7-7-7-77-|
D|---X/X----X/X----X/X----X/X---X-----5---5-5-7-7-7-77-5-5-7-7-7-77-|
A|---9/11--11/12--12/14---7/9---9-----5---5-5-7-7-7-77-3-3-5-5-5-55-|
E|-0------0------0------0-----0------------------------3-5-5-5-5-55-|

Chorus
e|----------------------------------------------------|
B|-----------------------------5-5-5-5-55-------------|
G|-9-9-9-9-99------7-7-7-7-77--4-4-4-4-44--5-5-7-7-77-|
D|-9-9-9-9-99--5-5-7-7-7-7-77--2-2-2-2-22--5-5-7-7-77-|
A|-7-7-7-7-77--5-5-5-5-5-5-55--2-2-2-2-22--3-3-5-5-55-|
E|-------------3-3-------------0-0-0-0-00--3-3-5-5-55-|

e|------------------------------------------|
B|------------------------------------------|
G|-9-9-9-9-99------7-7-7-7-77----5-5-7-7-77-|
D|-9-9-9-9-99--5-5-7-7-7-7-77----5-5-7-7-77-|
A|-7-7-7-7-77--5-5-5-5-5-5-55----3-3-5-5-55-|
E|--------------3-3--------------3-3-5-5-55-|

Part before the solo (Palm-mute Power chords)
e|----------------------------3---------------------------------3-----|
B|----------------------------3---3-----------------------------3---3-|
G|--------------------------------2---------------------------------2-|
D|2-2-2-2-2-2-2-2-222-2-2-2-2-------2-2-2-2-2-2-2-2-222-2-2-2-2-------|
A|2-2-2-2-2-2-2-2-222-2-2-2-2-------2-2-2-2-2-2-2-2-222-2-2-2-2-------|
E|0-0-0-0-0-0-0-0-000-0-0-0-0-------0-0-0-0-0-0-0-0-000-0-0-0-0-------|

Solo
e|---------------------------------------------------|
B|---------------------------------------------------|
G|---------------------------------------------------|
D|---------------------------------------------------|
A|-5/7---4/5---2/4---0h2-2---5/7---4/5---7/9---4/5-5-|
E|---------------------------------------------------|

e|-----------------------------------------------------|
B|-----------------------------------------------------|
G|-----------------------------------------------------|
D|-----------------------------------------------------|
A|-5/7---4/5---2/4---0h2-2---5/7---4/5---7/9---9/11-11-|
E|-----------------------------------------------------|

The rest is just the chorus repeated and ends with (x4)

e|------------------------------------|
B|------------------------------------|
G|--11/13--13/14--14/16---9/11-11-----|
D|---X/X----X/X----X/X----X/X---X-----|
A|---9/11--11/12--12/14---7/9---9-----|
E|-0------0------0------0-----0-------|

And that's it. Leave comments and ratings if you get a chance.
Tap to rate this tab
 
# A B C D E F G H I J K L M N O P Q R S T U V W X Y Z