Song name
# A B C D E F G H I J K L M N O P Q R S T U V W X Y Z

Hoobastank - Look Where We Are tab

Artist : Hoobastank
Song   : Look Where We Are
Album  : Every Man For Himself
Tuning : Drop D

The strumming patterns are easy to figure out.

Intro (only slide down 1st time)
e|---------------------------------------------|x3 
B|---------------------------------------------|
G|-------7h10p7---5-----------1p0-------5h7----|
D|-------------------7--5--3-------3p0---------| 
A|---------------------------------------------|
D|-14\0----------------------------------------|

e|------------------------------------x--10b---|
B|------------------------------------x--10b---|
G|----7h10p7---5------------1p0----------------|
D|----------------7--5--3--------3p0-----------| 
A|---------------------------------------------|
D|-0-------------------------------------------|

e|------------------------------------------|x2
B|------------------------------------------|
G|----7h10p7---5-----------1p0-------5h7----|
D|----------------7--5--3-------3p0---------| 
A|------------------------------------------|
D|-0----------------------------------------|

e|---------------------------------|---------------------------------|
B|---------------------------------|---------------------------------|
G|---7h10p7--5-------1p0------5h7--|----7h10p7--5-------1p0-----7h9--|
D|-------------7-5-3-----3p0-------|--------------7-5-3-----3p0------|
A|---------------------------------|---------------------------------|
D|-8-------------------------------|-10------------------------------|

Verse "I still remember the time, When this all felt like a dream"
e|----------------------------------------------12-12-12-12-12-12-12-12-12-12-12-12-|
B|--------------5-----------------5---------5---12-12-12-12-12-12-12-12-12-12-12-12-|
G|-------10-----5----------10-----5---10----5---12-12-12-12-12-12-12-12-12-12-12-12-|
D|-4-----10-----5----4-----10-----5---10----5---------------------------------------| 
A|-0------8-----3----0------8-----3----8----3---------------------------------------|
D|-0------8----------0------8----------8--------------------------------------------|

Chorus "Just look back on, How far we've come"
e|-3----2----1----0----------------|
B|-3----3----1----1----------------|
G|-2----2----0----0----------------|
D|-0----0----2----2----5----8----3-|
A|-----------3----3----5----8----3-|
D|---------------------5----8----3-|

I know its not totally right, but it sounds half decent i think...
Tap to rate this tab
# A B C D E F G H I J K L M N O P Q R S T U V W X Y Z