Song name
# A B C D E F G H I J K L M N O P Q R S T U V W X Y Z

Hoobastank - Out Of Control Acoustic tab

Track:  Out of Control (Acoustic)
Band:   Hoobastank
Tabber: FacingUsAll
Email:  jasoncolton@sbcglobal.net

After watching videos of the acoustic version of "Out of Control," I'm pretty sure that 
is how Dan plays it.
Listen to the song or watch the various live videos to figure out the strumming pattern.

Tuning: Open E: E B E G# B e

Intro

e |----------------------|
B |----------------------|
G#|---11---10---13---8---|
E |---10---10---12---7---|
B |---8----8----10---5---|
E |---0----0----10---5---|

Pre-Chorus/Bridge

e |----------------------------------------------------|
B |----------------------------------------------------|
G#|-------6-------6-------11-------6-------6-------4---|
E |-------5-------5-------10-------5-------5-------3---|
B |---0---3---0---3---0---8----0---3---0---3---0---1---|
E |---0---3---0---3---0---8----0---3---0---3---0---1---|

Chorus

e |----------------------------------------------|
B |----------------------------------------------|
G#|-------11---6---10/11/13-------11---10---13---|
E |-------10---5---9-/10/12-------10---9----12---|
B |---0---8----3---7-/8-/10---0---8----7----10---|
E |---0---8----3---7-/8-/10---0---8----7----10---|

Chorus Transition into Verse

e |--------|
B |--------|
G#|---11---|
E |---10---|
B |---8----|
E |---0----|

Solo

e |-------------------------------|
B |-----5-5-5-5-3-3-3-3-6-6-6-6---|
G#|-------------------------------|
E |-------------------------------|
B |---0---------------------------|
E |---0---------------------------|

Solo Transition into Chorus

e |---0---|
B |---5---|
G#|---0---|
E |---0---|
B |---0---|
E |---0---|
Tap to rate this tab
# A B C D E F G H I J K L M N O P Q R S T U V W X Y Z