Song name
# A B C D E F G H I J K L M N O P Q R S T U V W X Y Z

Hoobastank - Every Man For Himself tab

      *NOTE*none of these tabs are mine and i dont claim any of them to be,except for the last one

Band:Hoobastank
Album:Every Man For Himself

#   Song Name           Tuning      Taber
1  Born to Lead         Drop D      _A_X_L_

2  Moving Forward       Standard    Rock God #1

3  Inside of You        Drop D      Jaames

4  The First of Me      Standard    _A_X_L_

5  Good Enough          Drop D      _A_X_L_

6  If I Were You        Drop D      Bilawal

7  Without a Fight      Drop D      _A_X_L_

8  Dont Tell Me         Drop D      _A_X_L_

9  Look Where We Are    Drop D      Jaames

10 Say the Same         Standard    _A_X_L_

11 If Only              Standard    _A_X_L_

12 More Than a Memory   Standard    FENDER785

----------------------------------------------------------------------------
1.BORND TO LEAD
----------------------------------------------------------------------------

The song pretty much repeats itself, so here goes.

The intro and the pre-chorus are the same thing basically.

INTRO/PRE-CHORUS:
e|----------------------------------------|
B|----------------------------------------|
G|----------------------------------------|
D|----------------------------------------|
A|------5-3-5---5-5-3-5---5-3-5---5-5-3-5-|
D|----0-------0---------3-------0---------|

e|----------------------------------------|
B|----------------------------------------|
G|----------------------------------------|
D|----------------------------1-----------|
A|------5-3-5---5-5-3-5---1-3----5-5-3-5--|
D|----0-------0---------1-------0---------|

CHORUS:
e|------------------------|
B|------------------------|
G|---------5--------------|
D|----0----5----5----1----|
A|----0----3----5----1----|
D|----0---------5----1----|

SOLO:
e|-----------------------|
B|-----------------------|
G|-----------------------|
D|----3-0---3-5-6-xxxxxx-|
A|----3-0---3-5-6-xxxxxx-|
D|----3-0---3-5-6-xxxxxx-|

e|-----------------------|
B|-----------------------|
G|------------------5555-|
D|----3-0---3-5-6-xx5555-|
A|----3-0---3-5-6-xx3333-|
D|----3-0---3-5-6-xx-----|

e|-----------------------|
B|-----------------------|
G|-----------------------|
D|----3-0---3-5-6-xxxxxx-|
A|----3-0---3-5-6-xxxxxx-|
D|----3-0---3-5-6-xxxxxx-|

e|-----------------------|
B|-----------------------|
G|------------------7777-|
D|----3-0---3-5-6-xx7777-|
A|----3-0---3-5-6-xx5555-|
D|----3-0---3-5-6-xx-----|

CHORUS AFTER SOLO:
e|---------------------------------------|
B|---------------------------------------|
G|---------------------------------------|
D|----55555555-6666666-88888888-66666666-|
A|----55555555-6666666-88888888-66666666-|
D|----55555555-6666666-88888888-66666666-|

e|---------------------------------------|
B|---------------------------------------|
G|---------------------------------------|
D|----55555555-6666666-88888888-99999999-|
A|----55555555-6666666-88888888-99999999-|
D|----55555555-6666666-88888888-99999999-|

Like I said, the song repeats itself so all you have to do is figure out the timing and stuff like that.

----------------------------------------------------------------------------
2.MOVING FORWARD
----------------------------------------------------------------------------

Intro: Synthesised voices over a kind of laser noise. no guitars until the last 'moving
becomes slurred.

First Verse:

e|-x-----------x-----------x-----------x----------x------|
B|-3--(x 24)---x--(x 24)---3--(x 24)---x--(x 21)--x-(x 3)|
G|-2-----------3-----------2-----------3----------5------|
D|-0-----------0-----------0-----------0----------0------|
A|-x-----------x-----------x-----------x----------x------|
E|-x-----------x-----------x-----------x----------x------|

Bridge:

e|-x----------x----------x----------x----------|
B|-3--(x 6)---x--(x 6)---x--(x 6)---x--(x 6)---|
G|-2----------3----------5----------7----------|
D|-0----------0----------0----------0----------|
A|-x----------x----------x----------x----------|
E|-x----------x----------x----------x----------|

e|-x----------x----------x----------x----------|
B|-3--(x 6)---x--(x 6)---x--(x 6)---x--(x 12)--|
G|-2----------3----------5----------6----------|
D|-0----------0----------0----------0----------|
A|-x----------x----------x----------x----------|
E|-x----------x----------x----------x----------|

Chorus:

e|-x---------x---------x-----------|
B|-x--(x6)---x--(x6)---x--(x 12)---|
G|-3---------5---------7-----------|  x2
D|-0---------0---------0-----------|
A|-x---------x---------x-----------|
E|-x---------x---------x-----------|

e|-x---------x---------x----------x-----------x----------x-----------|
B|-x--(x6)---x--(x6)---x--(x 6)---x--(x 12)---x--(x 6)---x--(x 12)---|
G|-3---------5---------7----------3-----------5----------7-----------|
D|-0---------0---------0----------0-----------0----------0-----------|
A|-x---------x---------x----------x-----------x----------x-----------|
E|-x---------x---------x----------x-----------x----------x-----------|

Repeat chords from first verse

Repeat chords from bridge

Repeat chords from chorus

Break:

e|-x-----------x-----------x-----------|
B|-x--(x 24)---x--(x 12)---x--(x 12)---|
G|-6-----------7-----------9-----------|
D|-0-----------0-----------0-----------|
A|-x-----------x-----------x-----------|
E|-x-----------x-----------x-----------|

e|-x-----------x-----------|
B|-x--(x 12)---x--(x 12)---|  x2
G|-7----------10-----------|
D|-0-----------8-----------|
A|-x-----------x-----------|
E|-x-----------x-----------|

e|-x-----------x-----------|
B|-3--(x 12)---x--(x 12)---|
G|-2----------10-----------|
D|-0-----------8-----------|
A|-x-----------x-----------|
E|-x-----------x-----------|

Chorus 2:

e|-x----------x----------|
B|-3--(x 12)--x--(x 12)--| x2
G|-2----------3----------|
D|-0----------0----------|
A|-x----------x----------|
E|-x----------x----------|

Break 2:

e|-x-----------x-----------|
B|-x--(x 12)---x--(x 12)---|  x2
G|-7----------10-----------|
D|-0-----------8-----------|
A|-x-----------x-----------|
E|-x-----------x-----------|

Repeat Chorus 2

Repeat Break 2

Repat Chrous 2 x2

Outro:

e|-x-|
B|-3-|
G|-2-|
D|-0-|
A|-x-|
E|-x-|

Legend: x  Mute note
----------------------------------------------------------------------------
3.INSIDE OF YOU
----------------------------------------------------------------------------

Intro/chorus (x1)
E|----------------x-x-5-5-5-5-----x-x-5-5-5-5-----x-x-------------x-x-0h1p0--|
B|----------------x-x-6-6-6-6-----x-x-6-6-6-6-----x-x-6-6-6-6-----x-x-3------|
G|-x--5--x--------x-x-7-7-7-7-----x-x-7-7-7-7-----x-x-5-5-5-5-----x-x-2------|
D|-x--5--x--5--0--x-x-7-7-7-7--0--x-x-7-7-7-7--3--x-x-3-3-3-3--7--x-x--------|
A|-x--3--x--5--0---------------0---------------3---------------7-------------|
D|-x-----x--5--0---------------0---------------3---------------7-------------|


E|----x-x-5-5-5-5-----x-x-5-5-5-5-----x-x---------------------0h1p0--|
B|----x-x-6-6-6-6-----x-x-6-6-6-6-----x-x-11-11-11-11---------3------|
G|----x-x-7-7-7-7-----x-x-7-7-7-7-----x-x-10-10-10-10---------2------|
D|-0--x-x-7-7-7-7--0--x-x-7-7-7-7--8--x-x--8--8--8--8--7--x-x--------|
A|-0---------------0---------------8-------------------7--x-x--------|
D|-0---------------0---------------8-------------------7--x-x--------|


Verse (x4) "It seems so obvious, theres something up with us "
E|---------------------------------------------------|
B|---------------------------------------------------|
G|---------------------------------------------------|
D|---------------------3-3-----3-------0-2-3-2-0-----|
A|-5--------0-3-5--1-1-----1-1---0-2-3---------------|
D|----0-3-5------------------------------------------|


Chorus (x2) "What do I have to do, to get inside of you"
E|----------------x-x-5-5-5-5-----x-x-5-5-5-5-----x-x-------------x-x-0h1p0--|
B|----------------x-x-6-6-6-6-----x-x-6-6-6-6-----x-x-6-6-6-6-----x-x-3------|
G|-x--5--x--------x-x-7-7-7-7-----x-x-7-7-7-7-----x-x-5-5-5-5-----x-x-2------|
D|-x--5--x--5--0--x-x-7-7-7-7--0--x-x-7-7-7-7--3--x-x-3-3-3-3--7--x-x--------|
A|-x--3--x--5--0---------------0---------------3---------------7-------------|
D|-x-----x--5--0---------------0---------------3---------------7-------------|


E|----x-x-5-5-5-5-----x-x-5-5-5-5-----x-x----------------------0h1p0-|
B|----x-x-6-6-6-6-----x-x-6-6-6-6-----x-x-11-11-11-11----------3-----|
G|----x-x-7-7-7-7-----x-x-7-7-7-7-----x-x-10-10-10-10----------2-----|
D|-0--x-x-7-7-7-7--0--x-x-7-7-7-7--8--x-x--8--8--8--8--10--x-x-------|
A|-0---------------0---------------8-------------------10--x-x-------|
D|-0---------------0---------------8-------------------10--x-x-------|
                                                     \7's 2nd time/

Solo (x2)
E|---------------------------------------------------------------------|
B|---------------------------------------------------------------------|
G|----------------5h7p0----------5-------------------5h7p0----------5--|
D|---------3h5p0---------5h7-----5------------3h5p0---------5h7-----5--|
A|-5h3p5----------------------0--3-----3h5p0---------------------0--3--|
D|-------0--------------------------0----------------------------------|


E|-----------------------------------------------------------------------|
B|-----------------------------------------------------------------------|
G|------------------2h3-------------3-------------------2h3------------5-|
D|-----------2h3p0-------0--2h3-----3------------2h3p0------0--2h3-----5-|
A|----0h1p0----------------------0--1-----0h1p0---------------------0--3-|
D|-0-----------------------------------0---------------------------------|


Bridge (x6)
E|-------------------|
B|-------------------|
G|-------------------|
D|-------------------|
A|-5------0-3-5-3----|
D|----0-3------------|


Interlude (x1)
E|---------------------------------------------------------------------------|
B|---------------------------------------------------------------------------|
G|---------------------------------------------------------------------------|
D|-0-0---0-0---3-3---7-7---0-0---0-0---8-8---10-10---------------------------|
A|-0-0---0-0---3-3---7-7---0-0---0-0---8-8---10-10---------------------------|
D|-0-0---0-0---3-3---7-7---0-0---0-0---8-8---10-10---------------------------|
-----------------------------------------------------------------------------|
4.THE FIRST OF ME
----------------------------------------------------------------------------

PRE-CHORUS: (Palm muted)
e|--------------------------------------|
B|--------------------------------------|
G|--------------------------------------|
D|-7777777---77777777777777---6666666---|
A|-5555555-0-44444444444444-0-4444444-0-|
E|--------------------------------------|

Keep on repeating that until: (Palm muted still)
e|------------------------------------|
B|------------------------------------|
G|------------------------------------|
D|-4444444444444444-77777777-99999999-|
A|-2222222222222222-55555555-77777777-|
E|------------------------------------|

e|------------------|
B|------------------|
G|------------------|
D|-444444444444-222-| (x2)
A|-444444444444-222-|
E|-222222222222-000-|

CHORUS:
e|---------------------|
B|----------------5----|
G|----------------6--7-|
D|-4----7----2----6--7-|
A|-4----7----2----4--5-|
E|-2----5----0---------|

Sometime at the end of the song, this is played along with the chorus:
e|-9--7-----------7-|
B|-------10--9-10---|
G|------------------|
D|------------------|
A|------------------|
E|------------------|

OUTRO:
e|-4-4-5-4---|
B|---------5-|
G|-----------| (x2)
D|-----------|
A|-----------|
E|-----------|

e|-4-4-5-4-----------4-4-----------------------------------------------------|
B|---------7--6-6--7---------------------------------------------------------|
G|---------------------------------------------------------------------------|
D|---------------------------------------------------------------------------|
A|---------------------------------------------------------------------------|
E|---------------------------------------------------------------------------|
-----------------------------------------------------------------------------|
5.GOOD ENOUGH
----------------------------------------------------------------------------

INTRO:
e|---------12------12-----------10------10-----------10------10-----------8-|
B|-------8-------8-------8----8-------8-------8----8-------8-------8----8---|
G|----11------11------11---11------11------11---11------11------11---11-----|
D|--------------------------------------------------------------------------|
A|--------------------------------------------------------------------------|
D|--------------------------------------------------------------------------|

e|------8------|
B|----8------8-|
G|-11-----11---|
D|-------------|
A|-------------|
D|-------------|

CHORUS:
e|--------------------------|
B|--------5----------7------|
G|---------------------5555-|
D|----222---5555-000---5555-|
A|----222---5555-000---3333-|
D|----222---5555-000--------|

INTERLUDE:
e|--------------|
B|--------------|
G|----5555-7777-|
D|----5555-7777-|
A|----3333-5555-|
D|--------------|

Keep on playing those back and forth untill:
e|---------------------------------|
B|---------------------------------|
G|----9---11-12/14---12-11---------|
D|-------------------------12---10-|
A|---------------------------------|
D|---------------------------------|

End on:
e|---------|
B|---------|
G|---------|
D|----2222-|
A|----2222-|
D|----2222-|

And that's it. Everything repeats except for the interlude, so all you have to do is
out the rythm and timing.
----------------------------------------------------------------------------
6.IF I WERE YOU
----------------------------------------------------------------------------

Verse 1

You seem to find the dark, when everything is bright

e|--------7----------------|-----------5---------------|
B|--------8----------------|-----------6---------------|
G|--------9----------------|-----------7---------------|
D|--------9----------------|-----------7---------------|
A|--------0----------------|-----------0---------------|
D|-------------------------|---------------------------|

You look for all that's wrong, instead of all that's right

e|--------7----------------|----------3---------5------|
B|--------8----------------|----------4---------6------|
G|--------9----------------|----------5---------7------|
D|--------9----------------|----------5---------7------|
A|--------0----------------|----------0---------0------|
D|-------------------------|---------------------------|


Does it feel good to you, to rain on my parade
e|--------7----------------|-----------5---------------|
B|--------8----------------|-----------6---------------|
G|--------9----------------|-----------7---------------|
D|--------9----------------|-----------7---------------|
A|--------0----------------|-----------0---------------|
D|-------------------------|---------------------------|

      You never say a word,unless it's to complain
e|--------7----------------|----------3---------5------|
B|--------8----------------|----------4---------6------|
G|--------9----------------|----------5---------7------|
D|--------9----------------|----------5---------7------|
A|------- 0----------------|----------0---------0------|
D|-------------------------|---------------------------|

   It's driving me insane
e|------7------------------|
B|------8------------------|
G|------9------------------|
D|------9------------------|
A|------0------------------|
D|-------------------------|


Chorus 1 (plucking, not struming)

If I were you
e|----------------------------|
B|-----6---6---6---6---6------|
G|------5---5---5---5---5-----|
D|----------------------------|
A|----------------------------|
D|----------------------------|

Holding the world right in my hands
e|---------------------------------------------------------------|
B|-----9---9---9---9---9---3---3---5---5---6---6---6---6---6-----|
G|------8---8---8---8---8---2---2---4---4---5---5---5---5---5----|
D|---------------------------------------------------------------|
A|---------------------------------------------------------------|
D|---------------------------------------------------------------|

The first thing I'd do
e|---------------------------|
B|-----6---6---6---6---------|
G|------5---5---5---5--------|
D|---------------------------|
A|---------------------------|
D|---------------------------|

Is thank the stars for all that I have

e|---------------------------------------------------------------|
B|-----9---9---9---9---9---3---3---5---5---6---6---6---6---6-----|
G|------8---8---8---8---8---2---2---4---4---5---5---5---5---5----|
D|---------------------------------------------------------------|
A|---------------------------------------------------------------|
D|---------------------------------------------------------------|

If I were you

Verse 2

e|------7------------------|----------5-----------------|
B|------8------------------|----------6-----------------|
G|------9------------------|----------7-----------------|
D|------9------------------|----------7-----------------|
A|------0------------------|----------0-----------------|
D|-------------------------|----------------------------|

e|--------7-------3-----------|
B|--------8-------4-----------|
G|--------9-------5-----------|
D|--------9-------5-----------|
A|--------0-------0-----------|
D|----------------------------|

Look at what's around you now, More than you ever dreamed

e|--------7----------------|-----------5---------------|
B|--------8----------------|-----------6---------------|
G|--------9----------------|-----------7---------------|
D|--------9----------------|-----------7---------------|
A|--------0----------------|-----------0---------------|
D|-------------------------|---------------------------|

Have you forgotten just, how hard it used to be?

e|--------7----------------|----------3---------------|
B|--------8----------------|----------4---------------|
G|--------9----------------|----------5---------------|
D|--------9----------------|----------5---------------|
A|--------0----------------|----------0---------------|
D|-------------------------|--------------------------|

So what's it going to take, for you to realize

e|--------7----------------|-----------5---------------|
B|--------8----------------|-----------6---------------|
G|--------9----------------|-----------7---------------|
D|--------9----------------|-----------7---------------|
A|--------0----------------|-----------0---------------|
D|-------------------------|---------------------------|

That all could go away, in one blink of an eye

e|--------7----------------|----------3------5----7---|
B|--------8----------------|----------4------6----8---|
G|--------9----------------|----------5------7----9---|
D|--------9----------------|----------5------7----9---|
A|--------0----------------|----------0------0----0---|
D|-------------------------|--------------------------|

It happens all the time.

The second chorus starts with distorion, i still have to figure that out and i will be
it as soon as i get it. Try it while listening to the song. For now this all i can do,
have wait a bit for the complete song, your corrections and comments are welcome.
----------------------------------------------------------------------------
7.WITHOUT A FIGHT
----------------------------------------------------------------------------

INTRO/PRE-CHORUS:
e|----------------------------------------|
B|----------------------------------------|
G|--------999999999-----99999-------------|
D|----0h2-999999999-0h2-99999-55-12121212-|
A|----0h2-777777777-0h2-77777-55-12121212-|
D|----0h2-----------0h2-------55-12121212-|

The part that goes:
"The clock is counting down..."
Goes like:
e|---------------------|
B|---------------------|
G|---------------------|
D|----4----5----4----5-|
A|----4----5----4----5-|
D|----4----5----4----5-|

CHORUS:
e|--------------------------------------------------|
B|--------------------------------------------------|
G|------------7-7777-777------------5-55-55-7-77-77-|
D|-2-2222-222-7-7777-777-7-7777-777-5-55-55-7-77-77-|
A|-2-2222-222-5-5555-555-7-7777-777-3-33-33-5-55-55-|
D|-2-2222-222------------7-7777-777-----------------|

SOLO:
e|--------------------------------|
B|--------------------------------|
G|--------------------------------|
D|-2-0-5-0-7-0-9-0-12-0-9-0-12/14-| (x3)
A|-2-0-5-0-7-0-9-0-12-0-9-0-12/14-|
D|-2-0-5-0-7-0-9-0-12-0-9-0-12/14-|

e|-----------|
B|-----------|
G|-77-x-66-x-|
D|-77-x-66-x-|
A|-55-x-44-x-|
D|-----------|

Do that two or three times. Then play:
e|---------------------------------------------------------------------------|
B|---------------------------------------------------------------------------|
G|-----------77-x-66-x-------------------------------------------------------|
D|-2-222-222-77-x-66-x-------------------------------------------------------| (x2)
A|-2-222-222-55-x-44-x-------------------------------------------------------|
D|-2-222-222-----------------------------------------------------------------|
-----------------------------------------------------------------------------|
8.DONT TELL ME
----------------------------------------------------------------------------

The song starts of with just pianos and stuff, and then you start off with:
e|-----------------------------------------------------|
B|-----------------------------------------------------|
G|-------------66666666--------------------------------|
D|----66666666-66666666-444444-6-666-22222222-77777777-|
A|----66666666-44444444-444444-6-666-22222222-77777777-|
D|----66666666----------444444-6-666-22222222-77777777-|
The chorus is pretty much the same thing, just a bit slower.
CHORUS:

e|----------------------------------|
B|----------------------------------|
G|---------6666---------------------|
D|----6666-6666-444-6-666-2222-7777-| (x2)
A|----6666-4444-444-6-666-2222-7777-|
D|----6666------444-6-666-2222-7777-|

The pre-chorus is just the piano again.
Right before the chorus, play:
e|-------------|
B|-------------|
G|-------------|
D|----11111111-|
A|----11111111-|
D|----11111111-|
       ....... P.M.

Then add this to the end of the chorus:
e|----------------------------------|
B|----------------------------------|
G|----------------------------------|
D|----99999999-2222-7777-99999999-1-|
A|----99999999-2222-7777-99999999-1-|
D|----99999999-2222-7777-99999999-1-|

SOLO:
e|-----------------------------------------11b-14-13-14-13-14-15b-|
B|----99----77---------------9-----9-11-12------------------------|
G|-------88----66-66-44-6-66---8-8--------------------------------|
D|----------------------------------------------------------------| (x2)
A|----------------------------------------------------------------|
D|----------------------------------------------------------------|

After the solo play:
e|-----------------------|
B|-----------------------|
G|-----------------------|
D|----66666666-444-6-666-| (x3)
A|----66666666-444-6-666-|
D|----66666666-444-6-666-|

Then after the third time play:
e|-------------------|
B|-------------------|
G|-----------------6-|
D|----66666666-444-6-|
A|----66666666-444-4-|
D|----66666666-444---|

Then repeat the chorus 4 times. Add this to the end:
e|-----------------------|
B|-----------------------|
G|-----------------------|
D|----99999999-2222-7777-| (x2)
A|----99999999-2222-7777-|
D|----99999999-2222-7777-|

e|---------------------------------------------------------------------------|
B|---------------------------------------------------------------------------|
G|---------------------------------------------------------------------------|
D|----55555555-77777777-9----------------------------------------------------|
A|----55555555-77777777-9----------------------------------------------------|
D|----55555555-77777777-9----------------------------------------------------|
-----------------------------------------------------------------------------|
9.LOOK WHERE WE ARE
----------------------------------------------------------------------------
The strumming patterns are easy to figure out.

Intro (only slide down 1st time)
e|---------------------------------------------|x3
B|---------------------------------------------|
G|-------7h10p7---5-----------1p0-------5h7----|
D|-------------------7--5--3-------3p0---------|
A|---------------------------------------------|
D|-14\0----------------------------------------|

e|------------------------------------x--10b---|
B|------------------------------------x--10b---|
G|----7h10p7---5------------1p0----------------|
D|----------------7--5--3--------3p0-----------|
A|---------------------------------------------|
D|-0-------------------------------------------|

e|------------------------------------------|x2
B|------------------------------------------|
G|----7h10p7---5-----------1p0-------5h7----|
D|----------------7--5--3-------3p0---------|
A|------------------------------------------|
D|-0----------------------------------------|

e|---------------------------------|---------------------------------|
B|---------------------------------|---------------------------------|
G|---7h10p7--5-------1p0------5h7--|----7h10p7--5-------1p0-----7h9--|
D|-------------7-5-3-----3p0-------|--------------7-5-3-----3p0------|
A|---------------------------------|---------------------------------|
D|-8-------------------------------|-10------------------------------|

Verse "I still remember the time, When this all felt like a dream"
e|------------------------------------------12-12-12-12-12-12-12-12-12-12-12-12-|
B|------------5---------------5---------5---12-12-12-12-12-12-12-12-12-12-12-12-|
G|-7----10----5----7----10----5---10----5---12-12-12-12-12-12-12-12-12-12-12-12-|
D|-0----10----5----0----10----5---10----5---------------------------------------|
A|-9-----8----3----9-----8----3----8----3---------------------------------------|
D|-0-----8---------0-----8---------8--------------------------------------------|

Chorus "Just look back on, How far we've come"
e|---------------------------------------------------------------------------|
B|-8---7---6---5-------------------------------------------------------------|
G|-x---7---x---5-------------------------------------------------------------|
D|-7---7---5---5---5---8---3-------------------------------------------------|
A|-5---5---3---3---5---8---3-------------------------------------------------|
D|-----------------5---8---3-------------------------------------------------|
-----------------------------------------------------------------------------|
10.SAY THE SAME
----------------------------------------------------------------------------
INTRO:
e|--------------------------------------|
B|-7h9-9h10-10h12-7h9-9-------------5-5-|
G|----------------------4-6-7-6-4-7-----|
D|--------------------------------------|
A|--------------------------------------|
E|--------------------------------------|

Keep on repeating until:
e|----------------------------------------------------|
B|-7h9-9h10-10h12-7h9-9-------------5-5-----5-5---5-7-|
G|----------------------4-6-7-6-4-7-----4-7-----4-----|
D|----------------------------------------------------|
A|----------------------------------------------------|
E|----------------------------------------------------|

1st CHORUS:
e|---------------------------------------|
B|---------------------------------------|
G|-9999-999----77-777-9999-999-55-77-777-|
D|-9999-999-55-77-777-9999-999-55-77-777-|
A|-7777-777-55-55-555-7777-777-33-55-555-|
E|----------33---------------------------|

e|-------------------------------|
B|-------------------------------|
G|-9999-999----77-777-555-7-7-77-|
D|-9999-999-55-77-777-555-7-7-77-|
A|-7777-777-55-55-555-333-5-5-55-|
E|----------33-------------------|

PRE-CHORUS:
e|-------------------------------------------|
B|-7h9-9h10-10h12-7h9-9-9-7h9-9h10-10h12-7h9-|
G|-------------------------------------------|
D|-------------------------------------------|
A|-------------------------------------------|
E|-------------------------------------------|

e|------------------------------|
B|------------------------------|
G|-11/13-13/14-14/16-11/13------|
D|--x/x---x/x---x/x---x/x--5--7-| (x2)
A|--9/11-11/12-12/14--9/11-5--7-|
E|-------------------------3--5-|

e|------------------------------------|
B|------------------------------------|
G|-11/13-13/14-14/16-11/13-------5--7-|
D|--x/x---x/x---x/x---x/x--5--7--5--7-|
A|--9/11-11/12-12/14--9/11-5--7--3--5-|
E|-------------------------3--5-------|

2nd CHORUS:
e|----------------------------------------|
B|----------------------------------------|
G|-------------77-777----------55-77-xxxx-|
D|-2222-222-55-77-777-2222-222-55-77-xxxx-|
A|-2222-222-55-55-555-2222-222-33-55-xxxx-|
E|-0000-000-33--------0000-000------------|

e|------------------------------------------|
B|------------------------------------------|
G|--------------------555-7-7-77-555-7-7-77-|
D|-2222-222-55-77-777-555-7-7-77-555-7-7-77-|
A|-2222-222-55-55-555-333-5-5-55-333-5-5-55-|
E|-0000-000-33------------------------------|

Right before the solo play:
e|---------------------|
B|---------------------|
G|---------------------|
D|-22222222-222-222222-| (x4)
A|-22222222-222-222222-|
E|-00000000-000-000000-|

SOLO:
e|-----------------------|
B|-----------------------|
G|-----------------------|
D|-----------------------| (x3)
A|-5h7p5-4h5-2h4p2-0-2-2-|
E|-----------------------|

e|-----------------------|
B|-----------------------|
G|-----------------------|
D|-----------------------|
A|-5h7-4h5-7h9-4h5-5-----|
E|-----------------------|

e|-----------------------|
B|-----------------------|
G|-----------------------|
D|-----------------------| (x3)
A|-5h7p5-4h5-2h4p2-0-2-2-|
E|-----------------------|

e|-----------------------|
B|-----------------------|
G|-----------------------|
D|-----------------------|
A|-5h7-4h5-7h9-9h11-11---|
E|-----------------------|

And then you repeat the 2nd chorus, along with the first half of the intro.
----------------------------------------------------------------------------
11.IF ONLY
----------------------------------------------------------------------------

INTRO: (x2)
e|-11-11-11-12-12-12----------14-14-14-12-12-11-11-|
B|-------------------12-12-12----------------------|
G|-------------------------------------------------|
D|-------------------------------------------------|
A|-------------------------------------------------|
E|-------------------------------------------------|

e|----------12-12-12----------14-14-14-12-12-11-11-|
B|-10-10-10----------12-12-12----------------------|
G|-------------------------------------------------|
D|-------------------------------------------------|
A|-------------------------------------------------|
E|-------------------------------------------------|

PRE-CHORUS:
e|-----------------------------------------------0h2---|
B|-0h2-2h4-5-4-2---0h2-2h4-5-------------------------2-|
G|---------------1-----------3h4-4h6-6-4-3---3h4-------|
D|-----------------------------------------2-----------| (x2)
A|-----------------------------------------------------|
E|-----------------------------------------------------|

CHORUS:
You can play this:
e|-11-11-11-12-12-12----------14-14-14-12-12-11-11-|
B|-------------------12-12-12----------------------|
G|-------------------------------------------------|
D|-------------------------------------------------| (x8)
A|-------------------------------------------------|
E|-------------------------------------------------|

or:
e|--------------------|
B|--------------------|
G|----9-999-----------|
D|-66-9-999-77-9-999--| (x3)
A|-66-7-777-77-9-999--|
E|-44-------55-7-777--|

e|------------------|
B|------------------|
G|------------------|
D|-66-6666-77-99-99-|
A|-66-6666-77-99-99-|
E|-44-4444-55-77-77-|

Right before the solo, play:
e|-------------------|
B|-0h2-2h4-5-4-2-----|
G|---------------1-1-|
D|-------------------| (x3)
A|-------------------|
E|-------------------|

e|-------------|
B|-------------|
G|-66666666666-|
D|-66666666666-|
A|-44444444444-|
E|-------------|
PM ...........

SOLO:
e|-----------------12-12-11-14-12-11-11-12----|
B|---------9-10-12-------------------------12-|
G|-9-11-13------------------------------------|
D|--------------------------------------------|
A|--------------------------------------------|
E|--------------------------------------------|

e|----------12-14-16-16-16-14-16/19-17-16-16h17p16-14h16p14-12h14p12-|
B|-12-14-16----------------------------------------------------------|
G|-------------------------------------------------------------------|
D|-------------------------------------------------------------------|
A|-------------------------------------------------------------------|
E|-------------------------------------------------------------------|

e|-----------------12-12-11-14p12-----------141414-121212-111111-12p11----|
B|---------9-10-12----------------12-121212----------------------------12-|
G|-9-11-13----------------------------------------------------------------|
D|------------------------------------------------------------------------|
A|------------------------------------------------------------------------|
E|------------------------------------------------------------------------|

e|--------------12----12----11-11-14------------------|
B|-121212-14-14----14----14----------11b-11b11b11b11b-|
G|----------------------------------------------------|
D|----------------------------------------------------|
A|----------------------------------------------------|
E|----------------------------------------------------|

CHORUS: (After solo)
You can play this:
e|----------------|
B|----------------|
G|-9-999----------|
D|-9-999-77-9-999-|
A|-7-777-77-9-999-|
E|-------55-7-777-|

e|--------------------|
B|--------------------|
G|----9-999-----------|
D|-66-9-999-77-9-999--| (x2)
A|-66-7-777-77-9-999--|
E|-44-------55-7-777--|

e|-------------------------------------|
B|-------------------------------------|
G|-------------------------------------|
D|-66-6666-77-99-99-99-9999-1111-77-77-|
A|-66-6666-77-99-99-99-9999-1111-77-77-|
E|-44-4444-55-77-77-77-7777-9-9--55-55-|

or:
e|-11-11-11-12-12-12----------14-14-14-12-12-11-11-|
B|-------------------12-12-12----------------------|
G|-------------------------------------------------|
D|-------------------------------------------------| (x6)
A|-------------------------------------------------|
E|-------------------------------------------------|

e|-11-12----|
B|-------12-|
G|----------|
D|----------|
A|----------|
E|----------|

That's about everything. Just repeat the normal chorus after that^.
----------------------------------------------------------------------------
12.MORE THAN A MEMORY
----------------------------------------------------------------------------

*Note*-The first cord of the chorus is actually started on the word so. You just play 
last cord untill then


Intro
e|-------7-----7/8/7-5/7/5--------0-0-00-3-333-3-333------|
b|---------5---------------5--------1-11-3-333-3-333------|
g|-----5-----5---------------7------0-00-0-000-0-000------|  x2
d|---7---------------------------2--2-22-0-000-0-000------|
a|-0---------------------------3----3-33-2-222-2-222------|
E|---------------------------------------3-333-3-333------|

Pre Verse
e|----0-----0-----0-----0------|
b|-----3-----3-----3-----3-----|
g|---2--2--2--2--2--2--2--2----|  x2
d|--2-----2-----2-----2--------|
a|-0-----0-----0-----0---------|
E|-----------------------------|

Verse
e|-0-------------------------------x--------|
B|-1-------------------------------0--------|
G|-2-------------------------------2--------|
D|-2-------------------------------3--------|
A|-0-------------------------------3--------|
E|-0-------------------------------1--------|
   I've become tired Of Wasting my time
e|-x-------------------------------0--------|
B|-0-------------------------------1--------|
G|-2-------------------------------2--------|
D|-3-------------------------------2--------|
A|-3-------------------------------0--------|
E|-1-------------------------------0--------|
   Thinkin' bout choices That I've made
e|-0--------------------------------------x----------|
B|-1--------------------------------------0----------|
G|-2--------------------------------------2----------|
D|-2--------------------------------------3----------|
A|-0--------------------------------------3----------|
E|-0--------------------------------------1----------|
   Cuz i can't move forward While looking behind
e|-x---------------------------------0-----------|
B|-0----------------------------------3----------|
G|-2--------------------------------2--2-x4------|
D|-3-------------------------------2-------------|
A|-3------------------------------0--------------|
E|-1---------------------------------------------|
   The only thing I can do now is change the way
e|--------x----------|
B|--------0----------|
G|--------2----------|
D|--------3----------|
A|--------3----------|
E|--------1----------|
   That I use to be
e|-x------0-------------------x---------3---|
B|-0-------3------------------0---------3---|
G|-2-----2--2-x4--------------2---------0---|
D|-3----2---------------------3---------0---|
A|-3---0----------------------3---------2---|
E|-1--------------------------1---------3---|
   Cuz now it's seems Crystal clear to me

e|-0------------------------x-----------------------|
B|-1------------------------6-----------------------|
G|-0------------------------7-----------------------|
D|-2------------------------8-----------------------|
A|-3------------------------8-----------------------|
E|-0------------------------6-----------------------|


Chorus
e|-0------------------x-----------x-----3---|
B|-1------------------0-----------3-----3---|
G|-2------------------2-----------2-----0---|
D|-2------------------3-----------0-----0---|
A|-0------------------3-----------0-----2---|
E|-0------------------1-----------x-----3---|
   Cuz you're so much more Than a memory
e|-0------------------x-----------x-----3---|
B|-1------------------0-----------3-----3---|
G|-2------------------2-----------2-----0---|
D|-2------------------3-----------0-----0---|
A|-0------------------3-----------0-----2---|
E|-0------------------1-----------x-----3---|
   Cuz you're so much more Than a memory

e|----0-----0-----0-----0------|
b|-----3-----3-----3-----3-----|
g|---2--2--2--2--2--2--2--2----|
d|--2-----2-----2-----2--------|
a|-0-----0-----0-----0---------|
E|-----------------------------|

Verse
e|-0-----------------------------x--------|
B|-1-----------------------------0--------|
G|-2-----------------------------2--------|
D|-2-----------------------------3--------|
A|-0-----------------------------3--------|
E|-0-----------------------------1--------|
   It wasn't fair For me just to go
e|-x--------------------------------0--------|
B|-0--------------------------------1--------|
G|-2--------------------------------2--------|
D|-3--------------------------------2--------|
A|-3--------------------------------0--------|
E|-1--------------------------------0--------|
   Act like I knew what you've been though
e|-0---------------------------------x----------|
B|-1---------------------------------0----------|
G|-2---------------------------------2----------|
D|-2---------------------------------3----------|
A|-0---------------------------------3----------|
E|-0---------------------------------1----------|
   Cuz I wasn't there And I'll never know
e|-x----------------------------------0---------------x-----------|
B|-0-----------------------------------3--------------0-----------|
G|-2---------------------------------2--2-x4----------2-----------|
D|-3--------------------------------2-----------------3-----------|
A|-3-------------------------------0------------------3-----------|
E|-1--------------------------------------------------1-----------|
   Couldn't see from your point of view but I'm doing all I can
e|-x------0--------------x----3-----0-------x----------|
B|-0-------3-------------0----3-----1-------6----------|
G|-2-----2--2-x4---------2----0-----0-------7----------|
D|-3----2----------------3----0-----2-------8----------|
A|-3---0-----------------3----2-----3-------8----------|
E|-1---------------------1----3-----0-------6----------|
   For you to see that I understand, that I understand

Chorus
e|-0------------------x-----------x-----3---|
B|-1------------------0-----------3-----3---|
G|-2------------------2-----------2-----0---|
D|-2------------------3-----------0-----0---|
A|-0------------------3-----------0-----2---|
E|-0------------------1-----------x-----3---|
   Cuz you're so much more Than a memory
e|-0------------------x-----------x-----3---|
B|-1------------------0-----------3-----3---|
G|-2------------------2-----------2-----0---|
D|-2------------------3-----------0-----0---|
A|-0------------------3-----------0-----2---|
E|-0------------------1-----------x-----3---|
   Cuz you're so much more Than a memory
e|-0-----------------x------------x-----------3-|
B|-1-----------------0------------3-----------3-|
G|-2-----------------2------------2-----------0-|
D|-2-----------------3------------0-----------0-|
A|-0-----------------3------------0-----------2-|
E|-0-----------------1------------x-----------3-|
   So don't close my door On what still can be
e|-0------------------x-----------x-----3---|
B|-1------------------0-----------3-----3---|
G|-2------------------2-----------2-----0---|
D|-2------------------3-----------0-----0---|
A|-0------------------3-----------0-----2---|
E|-0------------------1-----------x-----3---|
   Cuz you're so much more than a memory

e|----0-----0-----0-----0-----x-|
b|-----3-----3-----3-----3----0-|
g|---2--2--2--2--2--2--2--2---2-|  x2
d|--2-----2-----2-----2-------3-|
a|-0-----0-----0-----0--------3-|
E|----------------------------1-|


Bridge
e|----0------------------x------------|
b|-----3-----------------0------------|
g|---2--2-x4-------------2------------|
d|--2--------------------3------------|
a|-0---------------------3------------|
E|-----------------------1------------|
   Please don't go cuz I finally know
e|-x-----------0---------------x-------------3-----------|
B|-0------------3--------------0-------------3-----------|
G|-2----------2--2-x4----------2-------------0-----------|
D|-3---------2-----------------3-------------0-----------|
A|-3--------0------------------3-------------2-----------|
E|-1---------------------------1-------------3-----------|
   That the past is gone and I was wrong and i was wrong

Chorus
e|-0------------------x-----------x-----3---|
B|-1------------------0-----------3-----3---|
G|-2------------------2-----------2-----0---|
D|-2------------------3-----------0-----0---|
A|-0------------------3-----------0-----2---|
E|-0------------------1-----------x-----3---|
   Cuz you're so much more Than a memory
e|-0------------------x-----------x-----3---|
B|-1------------------0-----------3-----3---|
G|-2------------------2-----------2-----0---|
D|-2------------------3-----------0-----0---|
A|-0------------------3-----------0-----2---|
E|-0------------------1-----------x-----3---|
   Cuz you're so much more Than a memory
e|-0-----------------x------------x------------3--|
B|-1-----------------0------------3------------3--|
G|-2-----------------2------------2------------0--|
D|-2-----------------3------------0------------0--|
A|-0-----------------3------------0------------2--|
E|-0-----------------1------------x------------3--|
   So don't close my door On what still can be
e|-0------------------x-----------x-----3---|
B|-1------------------0-----------3-----3---|
G|-2------------------2-----------2-----0---|
D|-2------------------3-----------0-----0---|
A|-0------------------3-----------0-----2---|
E|-0------------------1-----------x-----3---|
   Cuz you're so much more than a memory

e|-0--------x--------0--------x----3---------|
b|-1--------x--------1--------3----3---------|
g|-2--------0--------0--------2----0---------|
d|-2--------2--------2--------0----0---------|
a|-0--------2--------3--------0----2---------|
E|-0--------0--------0--------x----3---------|

e|-0---------------------x-------------|
b|-1---------------------x-------------|
g|-2---------------------0-------------|
d|-2---------------------2-------------|
a|-0---------------------2-------------|
E|-0---------------------0-------------|
   Please don't go cuz I finally know
e|-x--------0----------------x---------3----|
B|-x--------1----------------3---------3----|
G|-0--------0----------------2---------0----|
D|-2--------2----------------0---------0----|
A|-2--------3----------------0---------2----|
E|-0--------0----------------x---------3----|
   That the past is gone and I was wrong
e|-0---------------------x-------------|
b|-1---------------------x-------------|
g|-2---------------------0-------------|
d|-2---------------------2-------------|
a|-0---------------------2-------------|
E|-0---------------------0-------------|
   Please don't go cuz I finally know
e|-x--------0----------------x-----------3-----------|
B|-x--------1----------------3-----------3-----------|
G|-0--------0----------------2-----------0-----------|
D|-2--------2----------------0-----------0-----------|
A|-2--------3----------------0-----------2-----------|
E|-0--------0----------------x-----------3-----------|
   That the past is gone and I was wrong I was wrong

e|-0--------x--------0--------x----3---------|
b|-1--------x--------1--------3----3---------|
g|-2--------0--------0--------2----0---------| x4
d|-2--------2--------2--------0----0---------|
a|-0--------2--------3--------0----2---------|
E|-0--------0--------0--------x----3---------|
   OOING!!! Hell YEAH!


Outro
e|-------7-----7/8/7-5/7/5--------0-0-00-3-333-3-333------|
b|---------5---------------5--------1-11-3-333-3-333------|
g|-----5-----5---------------7------0-00-0-000-0-000------|  x9
d|---7---------------------------2--2-22-0-000-0-000------|
a|-0---------------------------3----3-33-2-222-2-222------|
E|---------------------------------------3-333-3-333------|

e|-----7-7/8/7-5/7/5--------0--0--7---|
b|------------------8------1-1-1--8---|
g|-5-5-----------------0-------0--9---|
d|-----------------------------2--9---|
a|-----------------------3-----3------|
E|------------------------------------|
Tap to rate this tab
# A B C D E F G H I J K L M N O P Q R S T U V W X Y Z