Song name
# A B C D E F G H I J K L M N O P Q R S T U V W X Y Z

Hoobastank - Did You Acoustic tab

As far as I know, Hoobastank hasn't played this song acoustic. But I think it sounds really good.

Comments please...


Verse
e|------------------------------------|
B|-3(x16)-1(x16)-1(x16)-1-----3-------|
G|-2------2------3------0(x7)-0(x4)---|
D|-0------0------0------0-----0-------|
A|-0------0------0------3-----3-------|
D|------------------------------------|

Pre-Chorus

e|------------------------------------|
B|-------3----------------------------|
G|---2---0----------------------------|
D|---2---2----------------------------|
A|---0---3----------------------------|
D|------------------------------------|

e|------------------------------------|
B|---3-3-3-3-3-3-3-3------------------|
G|---2-2-2-2-2-2-2-2------------------|
D|---0-0-3-0-0-3-0-1------------------|
A|---0-0-0-0-0-0-0-0------------------|
D|------------------------------------|

Chorus
Strum however you want
e|------------------------------------|
B|---3---3---3---3--------------------|
G|---2---0---0---2--------------------|
D|---0---0---0---0--------------------|  (X2)
A|---0---1---3---0--------------------|
D|---0---0---0---0--------------------|

Pre-Solo

e|------------------------------------|
B|---3-3-3-3-3-3-3-3------------------|
G|---2-2-2-2-2-2-2-2------------------|
D|---0-0-3-0-0-3-0-1------------------|
A|---0-0-0-0-0-0-0-0------------------|
D|------------------------------------|

e|--------------------------|
B|---3-3-3------------------|
G|---0-0-2------------------|
D|---0-0-0------------------|
A|---0-0-0------------------|
D|---0-3-0------------------|

Solo
e|--------------------------------|
B|---3-3-3-3-3-3------------------| X2
G|---2-2-2-2-2-0------------------|
D|---4-3-0-4-3-0------------------|
A|---0-0-3-0-0-0------------------|
D|--------------------------------|

Any Questions Email/IM me 

alextommo@hotmail.com

Tap to rate this tab
 
# A B C D E F G H I J K L M N O P Q R S T U V W X Y Z