Song name
# A B C D E F G H I J K L M N O P Q R S T U V W X Y Z

Hoobastank - Never Saw It Coming tab

Artist: Hoobastank
Track: Never Saw It Coming
Album: The Reason (BOnus Track)

Tuning: Drop D
Tabber: Alex Tomlinson

Intro
E--------------33-3--------------55-5-3-3-3-2-2-2-------------|
B--------2/3-5-33-3-5-32---2/3-5-33-3-3-3-3-3-3-3-------------|
G---2-2--2/2-2-22-2-2-22---2/2-2-22-2-2-0-0-2-2-2-------------|
D---2-2---------------------------------0-0-0-0-0-------------|
A---0-0~--------------------------------3-3-0-0-0-------------|
D-------------------------------------------------------------|

E--------------33-3--------------55-5-3----------------------|
B--------2/3-5-33-3-5-32---2/3-5-33-3-3----------------------|
G---2-2--2/2-2-22-2-2-22---2/2-2-22-2-2----------------------|
D---2-2---------------------------------3-3-3-5-5------------|
A---0-0~--------------------------------3-3-3-5-5------------|
D---------------------------------------3-3-3-5-5------------|

Verse (Some effects)
E---------------------------------------|
B-------5--5--5-5----5--5--5-5----------|
G----7-7--7--7----5-5--5--5-------------|
D-----7--7--7--7---7--7--7--7-----------|
A---------------------------------------|
D---------------------------------------|

Chorus
E--------------------------------------|
B--------------------------------------|
G--------------------------------------|
D--7-----3-----5-----------------------|
A--7-X8--3-X4--5-X5--------------------|
D--7-----3-----5-----------------------|

E-----------------------------------------------------------|
B-----------------------------------------------------------|
G-----------------------------------------------------------|
D---3-----5-----6-----8------7------------------------------|
A---3-x4--5-x5--6-x4--8-x5---7------------------------------|
D---3-----5-----6-----8------7------------------------------|

Bridge
E--------------33-3--------------55-5-3-3-3-2-2-2-------------|
B--------2/3-5-33-3-5-32---2/3-5-33-3-3-3-3-3-3-3-------------|
G---2-2--2/2-2-22-2-2-22---2/2-2-22-2-2-0-0-2-2-2-------------|
D---2-2---------------------------------0-0-0-0-0-------------|
A---0-0~--------------------------------3-3-0-0-0-------------|
D-------------------------------------------------------------|

E--------------33-3--------------55-5-3----------------------|
B--------2/3-5-33-3-5-32---2/3-5-33-3-3----------------------|
G---2-2--2/2-2-22-2-2-22---2/2-2-22-2-2----------------------|
D---2-2---------------------------------3-3-3-5-5------------|
A---0-0~--------------------------------3-3-3-5-5------------|
D---------------------------------------3-3-3-5-5------------|

E-----------------------------------------------------------|
B-----------------------------------------------------------|
G-----------------------------------------------------------|
D---3-----5-----6-----8-------------------------------------|
A---3-x4--5-x5--6-x4--8-x5----------------------------------|
D---3-----5-----6-----8-------------------------------------|

E----------------------[P.M]--------------------------------|
B-----------------------------------------------------------|
G-----------------------------------------------------------|
D---3-----5-----6-----8-8-------7---------------------------|
A---3-x4--5-x5--6-x4--8-8-x12---7---------------------------|
D---3-----5-----6-----8-8-------7---------------------------|

End

E--------------------------|--|----------------------------|
B--------------------------|--|----------------------------|
G--------------------------|--|----------------------------|
D---3-----5-----6-----8----|X2|-3-----5-----6-----8~-------|
A---3-x2--5-x2--6-x2--8-x2-|--|-3-X2--5-X2--6-X2--8~-------|
D---3-----5-----6-----8----|--|-3-----5-----6-----8~-------|
Tap to rate this tab
# A B C D E F G H I J K L M N O P Q R S T U V W X Y Z