Song name
# A B C D E F G H I J K L M N O P Q R S T U V W X Y Z

Hooded Fang - Highway Steam tab

Intro/Verse Chords:
e|-------------------|
B|-------------------|
G|-9----11-----------|
D|-9----11---9---11--|
A|-7----9----9---11--|
E|-----------7---9---|

Trumpet Riff:
e|--------------------7-9-11------7-9-------|
B|---7-9----10-9-7-----------9-10-----10-9--|
G|-9-----9----------9-----------------------|
D|------------------------------------------|
A|------------------------------------------|
E|------------------------------------------|

Chorus/Bridge:
e|----------------------|
B|----------------------|
G|----------------------|
D|-9------------7-------|
A|-9------------7-------|
E|-7------------5-------|
Tap to rate this tab
# A B C D E F G H I J K L M N O P Q R S T U V W X Y Z