Song name
# A B C D E F G H I J K L M N O P Q R S T U V W X Y Z

Hoodie Allen - Make It Home Live tab

Hoodie Allen & Kina Grannis ~ Make It Home (live)


Capo on 1st fret.


Chorus/Intro
e|----------------------|
B|----------------------|
G|---8---------5----7---|
D|---8----8----5----7---|
A|---6----8----3----5---|
E|--------6-------------|

Verse
e|----------------------|
B|----------------------|
G|---5----3----7----8---|
D|---5----3----7----8---|
A|---3----1----5----6---|
E|----------------------|

Bridge/Buildup
e|----------------------|
B|----------------------|
G|---5----7-------------|
D|---5----7-------------|
A|---3----5-------------|
E|----------------------|
Tap to rate this tab
# A B C D E F G H I J K L M N O P Q R S T U V W X Y Z