Song name
# A B C D E F G H I J K L M N O P Q R S T U V W X Y Z

Hoodie Allen - No Interruption Acoustic tab

Different strumming patterns are used throughout the song, so this is just a 
guideline.  It may not be 100% perfect, but it is very close. Enjoy!


Capo on 1st fret.


Intro x2
e|--x---x---x---x--|
B|--5---3---8---7--|
G|--5---x---x---7--|
D|--5---4---9---7--|
A|--3---2---7---5--|
E|--x---x---x---x--|


Verse x4
I gotta fake ID and a checklist
e|--x---x---x---x--|
B|--5---3---8---7--|
G|--5---x---x---7--|
D|--5---4---9---7--|
A|--3---2---7---5--|
E|--x---x---x---x--|


Verse x4
Imma do shit that just piss them off
e|-----------------|
B|-----------------|
G|-----------------|
D|--5---4---9---7--|
A|--3---2---7---5--|
E|--x---x---x---x--|


Chorus x4
Tell me what you really want from me
e|--x---x---x---x--|
B|--5---3---8---7--|
G|--5---x---x---7--|
D|--5---4---9---7--|
A|--3---2---7---5--|
E|--x---x---x---x--|


Chorus x4
In your home in your home oh
e|--3---5---3---2--|
B|--1---3---0---3--|
G|--x---x---0---2--|
D|--2---4---2---0--|
A|--3---5---2------|
E|--x---x---x------|
                                        

Verse x4
Talking money I donít really give a F, man
e|--x---x---x---x--|
B|--5---3---8---7--|
G|--5---x---x---7--|
D|--5---4---9---7--|
A|--3---2---7---5--|
E|--x---x---x---x--|


Verse x4
Iím just kidding Iím a white kid, hi kids
e|--x---x---x---x--|
B|--5---3---8---7--|
G|--5---x---x---7--|
D|--5---4---9---7--|
A|--3---2---7---5--|
E|--x---x---x---x--|


Chorus x4
Tell me what you really want from me
e|--x---x---x---x--|
B|--5---3---8---7--|
G|--5---x---x---7--|
D|--5---4---9---7--|
A|--3---2---7---5--|
E|--x---x---x---x--|


Chorus x4
In your home in your home oh
e|--3---5---3---2--|
B|--1---3---0---3--|
G|--x---x---0---2--|
D|--2---4---2---0--|
A|--3---5---2------|
E|--x---x---x------|


Bridge x1
I know itís hard to give you everything you want from me
e|------------------------------------------|
B|---1---1-------1-------1---1-------1------|
G|---2---0-------2-------2---0-------2---4--|
D|---2---2---2---2---2---2---2---2---2---4--|
A|-------3---2-------2-------3---2-------2--|
E|---------------------------------------x--|


Chorus x4
In your home in your home oh
e|--3---5---3---2--|
B|--1---3---0---3--|
G|--x---x---0---2--|
D|--2---4---2---0--|
A|--3---5---2------|
E|--x---x---x------|


Outro x1
e|--x---x---x---x---x---x---x--|
B|--5---3---8---7---5---3---8--|
G|--5---x---x---7---5---x---x--|
D|--5---4---9---7---5---4---9--|
A|--3---2---7---5---3---2---7--|
E|--x---x---x---x---x---x---x--|
Tap to rate this tab
# A B C D E F G H I J K L M N O P Q R S T U V W X Y Z