Song name
# A B C D E F G H I J K L M N O P Q R S T U V W X Y Z

Hoodie Allen - Two Lips Acoustic tab

This is the intro to the Acoustic version of Two Lips as seen in the Americoustic
music video.  I watched it over and over and found out the fingerings.

Play the intro and first verse picking like this:
E|------------------------------------------------------------------------------|
B|------------------------------------------------------------------------------|
G|-----4-----------4--------4--------4--------4--------4--------4--------4------|
D|-----5-----------5--------5--------5--------5--------5--------5--------5------|
A|--7-----------7--------7--------7--------3--------3--------3--------3---------|
E|------------------------------------------------------------------------------|
Sleeping in my bed at night....


E|--------------------------------------------------------------------------|
B|--------------------------------------------------------------------------|
G|-----4--------4--------4--------4--------4--------4--------4--------4-----|
D|-----5--------5--------5--------5--------5--------5--------5--------5-----|
A|--------------------------------------0--------0--------0--------0--------|
E|--3--------3--------3--------3--------------------------------------------|
[Verse 1:] (picking)
Sleeping in my bed at night
Tell her, turn the lights down low
Trying to figure out my mind
She always wonder where I go.
Tell her, Good music, coming home with a pocket full of tulips.
She want to point a finger at me, no excuses.
Trying end up in that pussy like two lips.

[Pre-Hook:] (picking)
She want it off, my head.
Want it off, my head, my head
Can we both, forget
Baby I don't know.
Want me more or less
Want me more or less, or less
Is it all for sex?
Baby, I hope so.


After the first verse start strumming using barre chords:


Em
So tell me what you want, what you really really want.
Cm                                                       Gm
I ain't got time, if you think that you're in love, with me.
                              D
So tell me what you want from me. oh
Em
I ain't got time, if you really wanna fuck.
Cm                                                           Gm
You're bitching all the time, that you never get enough from me.
                              D
So tell me what you want from me. ohh

[Verse 2:] (one strum per chord)
Em
Sitting in the hotel lobby
Cm
You never get me off my phone
Gm
Treat me like a paparazzi
D
I show up then I got to go. (start strumming normally now)
Em
Make good music,
     Cm
Everybody that I'm meeting is a doofus.
            Gm
They try to point an arrow at me like cupid
          D
I want to end up in that pussy like two lips.

[Pre-Hook:]

            Em
She want it off, my head.
        Cm
Want it off, my head, my head
       Gm
Can we both, forget
     D
Baby I don't know.
        Em
Want me more or less
        Cm
Want me more or less, or less
      Gm
Is it all for sex?
      D (one strum)
Baby, I hope so.

[Hook:]
Em
So tell me what you want, what you really really want.
Cm                                                       Gm
I ain't got time, if you think that you're in love, with me.
                              D
So tell me what you want from me. oh
Em
I ain't got time, if you really wanna fuck.
       Cm                                                    Gm
You're bitching all the time, that you never get enough from me.
                         D (one strum)
So tell me what you want from me. ohh




Hope you guys enjoyed it!  This is my first tab, glad I could help out!
Follow me on Twitter: @Tayleno
Or find me on YouTube: Tayleno
-Taylen Anderson
Tap to rate this tab
# A B C D E F G H I J K L M N O P Q R S T U V W X Y Z