Song name
# A B C D E F G H I J K L M N O P Q R S T U V W X Y Z

Hoodie Allen - No Interruption Acoustic tab

Hey guys. Here's the actual tab that the guitar plays in the acoustic and also in the original. Enjoy :)
There's no capo and standard tuning.

e|---------------------------------------------------|
B|11--13--11-----11------------------------9---------|
G|------------13-----10--8--10--10--8--10------------|
D|---------------------------------------------------|
A|---------------------------------------------------|
E|---------------------------------------------------|


e|------------------11----------------|
B|11--13--11----11-----13--11---------|
G|-----------13----------------13-----|
D|------------------------------------|
A|------------------------------------|
E|------------------------------------|
Tap to rate this tab
# A B C D E F G H I J K L M N O P Q R S T U V W X Y Z