Hoodoo Gurus - Place In The Sun tab

e -----------------------------------------|
B -----------------------------------------|
G -2-2-0h2p0------0----0---2p0---------2-2-|
D -2------------2--------------2p0-----2-2-|
A -0----------3------2-------------3p0-0-0-|
E -----------------3-----------------------|

e -----------------------------------------|
B -----------------------------------------|
G -2-2-0h2p0------0----0---2p0---------2-2-|
D -2------------2--------------2p0-----2-2-|
A -0----------3------2-------------3p0-0-0-|
E -----------------3-----------------------|

e -----------------------------------------|
B -----------------------------------------|
G -----------------------------------------|
D -2--------0-2-0-------2------------------|
A -0--3-0-3---------3p0-0------------------|
E -----------------------------------------|

(Repeats throughout the song)
Not sure about the solo :\
Tap to rate this tab
 
# A B C D E F G H I J K L M N O P Q R S T U V W X Y Z