Song name
# A B C D E F G H I J K L M N O P Q R S T U V W X Y Z

Hoodoo Gurus - Thats My Team tab

-------------------------------------------------------------------------------
			     that's my team- hoodoo guru's
-------------------------------------------------------------------------------
Tabbed by:digger9
Email:

normal

    D         E           G                       D   E   G
e|------2-0---------2-0----------2-0-2-0----0-2-|-2-|-0-|-2-|--------------|
B|------3-3---------0-0----------0-0-0-0--3---3-|-3-|-0-|-2-|--------------|
G|----2-----------------------------------------|-2-|-1-|-0-|--------------|
D|-0-------------2------------0-----------------|-0-|-2-|-0-|--------------|
A|----------------------------------------------|---|-2-|-2-|--------------|
E|------------0-----------3---------------------|---|-0-|-3-|--------------|


Tap to rate this tab
# A B C D E F G H I J K L M N O P Q R S T U V W X Y Z