Song name
# A B C D E F G H I J K L M N O P Q R S T U V W X Y Z

Hoods - Dont Fight Lets Party Tonight tab

Help us improve GuitareTab! Take a short survey!
Dont Fight let's party tonight


main riff
eb|---------------------------------|
Bb|---------------------------------|
Gb|---------------------------------|
Db|--2------------------------------|
Ab|--0-0000000--12p10----10b--------|
Eb|-------------------12-----12-----|
       .......

chorus
eb|-----------------------------------------|
Bb|-----------------------------------------|
Gb|-----------------------------------------|
Db|-----------------------------------------|
Ab|-12-12121212-10-10101010-7-7777-7-7777---|
Eb|-10-10101010-8--8-8-8-8--5-5555-5-5555---|

ending riff
eb|----------------------------------------------------------|
Bb|----------------------------------------------------------|
Gb|----------------------------------------------------------|
Db|---------------------------------------------------2~~----|
Ab|-222-000------------------2----------2----------2--2~~----|
Eb|---------333-222-0~-0-3-4---0~-0-3-4---0~-0-3-4----0~~----|


this is my first ever tab and i believe its 100%
Related for Dont Fight Lets Party Tonight tab