Song name
# A B C D E F G H I J K L M N O P Q R S T U V W X Y Z

Hoods - The King Is Dead tab

The King Is Dead

D#|--------------|
A#|--------------|
F#|--------------|
C#|--4--4--4--4--|
G#|--4--4--4--4--|
C#|--4--4--4--4--|

D#|-------------------|
A#|-------------------|
F#|-------------------|   Repeat 8x listen for the slight rhythm change
C#|--1-0-1-4-3-0-1----|   on the 6th time
G#|--1-0-1-4-3-0-1-3--|
C#|--1-0-1-4-3-0-1-5--|

D#|-------------------------------------------|
A#|-------------------------------------------|
F#|--4---3-------------4---3------------------|   Repeat 4x
C#|--6-0-5-00000000000-6-0-5-00-0-0-1-0-3-0-4-|
G#|----0---00000000000---0---00-0-0-1-0-3-0-4-|
C#|----0---00000000000---0---00-0-0-1-0-3-0-4-|

D#|---------------------------------------------|
A#|---------------------------------------------|
F#|---------------------------------------------|
C#|-1/4--3-3----4--3-3---4--3-3---4-3-6~5~0-1/--|
G#|-1/4--3-3----4--3-3---4--3-3---4-3-4~3~0-1/--|
C#|-1/4--3-3----4--3-3---4--3-3---4-3-----0-1/--|

D#|--------------------------------------------|
A#|--------------------------------------------|
F#|--------------------------------------------|
C#|-0000000-1-1-0000000-1-1-00000000-1-0-3-0-4-| Repeat 2x
G#|-0000000-1-1-0000000-1-1-00000000-1-0-3-0-4-|
C#|-0000000-1-1-0000000-1-1-00000000-1-0-3-0-4-|

D#|-----------------------------------------------|
A#|-----------------------------------------------|
F#|-----------------------------------------------|  Repeat 2x
C#|-00000-1-1-0-1-1-0-00000-00-00000-00-1-0-3-0-4-|
G#|-00000-1-1-0-1-1-0-00000-00-00000-00-1-0-3-0-4-|
C#|-00000-1-1-0-1-1-0-00000-00-00000-00-1-0-3-0-4-|


D#|-----------------------------------------------------|
A#|-----------------------------------------------------|
F#|------------------5/7~-----8\7~----7-7-7-7-7-7-7-7-7-|
C#|-0~------1-0~-----x/x------x\x-----7-7-7-7-7-7-7-7-7-|
G#|-0~------1-0~-----3/5~-----6\5~----5-5-5-5-5-5-5-5-5-|
C#|-0~------1-0~----------------------------------------|


D#|-----------------------------------------------------|
A#|-----------------------------------------------------|
F#|-----------------------------------------------------|  Repeat 2X
C#|-7-7-7-7-7/10-10-10-10-10-10-------------------------|
G#|-5-5-5-5-5/8--8--8--8--8--8--10-10-10-10--8-8-8-8-7-7|
C#|-----------------------------10-10-10-10--8-8-8-8-7-7|


D#|-----------------------------------------------------|
A#|-----------------------------------------------------|
F#|-----------------------------------------------------|
C#|-------------------------------5-5-5-5-3-3-3-3-2-2-2-|
G#|-0-0-0-0-0-0-0-3-3-3-3-3-3-3-3-3-3-3-3-1-1-1-1-0-0-0-|
C#|-0-0-0-0-0-0-0-3-3-3-3-3-3-3-3-----------------------|

D#|-----------------------------------------------------|------|
A#|-----------------------------------------------------|------|
F#|-----------------------------------------------------|------|
C#|-7-7-7-7-7/10-10-10-10-10-10-------------------------|---5~-|
G#|-5-5-5-5-5/8--8--8--8--8--8--10-10-10-10--8-8-8-8-7-7|0~----|
C#|-----------------------------10-10-10-10--8-8-8-8-7-7|0~----|
Tap to rate this tab
 
# A B C D E F G H I J K L M N O P Q R S T U V W X Y Z