Song name
# A B C D E F G H I J K L M N O P Q R S T U V W X Y Z

Hoods - Ernie Cortez tab

This is my first tab and I wrote the counts a bit different then others.
Xn: down strum n number of times
~: let ring

Into:
e|-------------------------------|
B|-------------------------------|
G|-33--66-----------66------33~--|
D|-33--66--66--44~--66--66--33~--|
A|-11--44--66--44~--44--66--11~--|
D|---------66--44~------66-------|

Bridge to verse:
e|----|
B|----|
G|-3~-|
D|-3~-|  (x4(let ring)/pick slide after 4th)
A|-1~-|
D|----|

Verse:
e|------------------------------------|
B|------------------------------------|
G|-3----6--------------6---------3----|
D|-3x5--6x3--6----4----6x3--6----3x5--|  (x4)
A|-1----4----6x3--4x5--4----6x3--1----|
D|-----------6----4---------6---------|

Chorus:

e|------------------------------|
B|------------------------------|
G|-3---4---6~----3---4---6~~----|
D|-3x5-4x5-6~----3x5-4x5-6~~----|
A|-1---2---4~----1---2---4~~----|
D|------------------------------|

e|--------------------------------|
B|--------------------------------|
G|-3---4---6~----3---4------------|
D|-3x5-4x5-6~----3x5-4x5-4~~------|
A|-1---2---4~----1---2---4~~------|
D|-----------------------4~~------|

Outro:

e|----|
B|----|
G|-3~-|
D|-3~-|  (x4(let ring)
A|-1~-|
D|----|

this is a mad awesome song written by Mike Hood from his Sacramento Hardcore band.
Let us never forget!!!
Thanks Mike for all your inspiration,
Philip
Tap to rate this tab
# A B C D E F G H I J K L M N O P Q R S T U V W X Y Z